Oops, an error
Loading. Please wait.

Bladecatcher Bass Tab

version 2
version 2

Whole song

Interactive

723 views 1 this week
2 commentsread comments
1 2 3 4 5
accurate
x 5
add to favorites
launch autoscroll
font size
0
reset
guitar tuner
Autoscroll
slow
fast
+/-
esc
set tempo
stop
Help us to improve Ultimate-Guitar.com Take our survey!
×
Author
Ashyo99 89
Bladecatcher bass tab by Ashley Griver


G|--------------------------------------------------------------|
D|--------------------------------------------------------------|
A|--------------------------------------------------------------|
D|-0~-----1--4----1--5--------0~----1-2-3-4-----0-1-5-7---------| 


G|-----------------------------------------------|
D|-----------------------------------------------|
A|-----------------------------------------------|
D|--22222222232232--333333333353353--------------| x2

G|-------------------------------------------------|
D|-------------------------------------------------|
A|--22222222232232---0000000020020-----------------|
D|-------------------------------------------------| x2

G|-----------------------------------------------|
D|-----------------------------------------------|
A|-----------------------------------------------|
D|--22222222232232--333333333353353--------------| x2

G|-----------------------------------------------------|
D|----------------------5h6h7-7h8h9--------------------|
A|---------3h4h5-5h6h7---------------5-----------------|
D|--5h6h7--------------------------------------==------| 

G|-------7p5---------------------7p5------------------|
D|--5h7-------7p5-3h4h5------5h7-----7p5-3h4h5--------|
A|-----------------------5---------------------5------|
D|----------------------------------------------------| 

G|-------7p5----------|
D|--5h7-------7p5-----|
A|--------------------|
D|--------------------| 

G|-----------------------------------------|
D|----------------------5h6h7-7h8h9--------|
A|---------3h4h5-5h6h7--------------5------|
D|--5h6h7----------------------------------| 

G|-------7p5---------------------7p5------------------|
D|--5h7-------7p5-3h4h5------5h7-----7p5-3h4h5--------|
A|-----------------------5---------------------5------|
D|----------------------------------------------------| 

G|-------7p5----------|
D|--5h7-------7p5-----|
A|--------------------|
D|--------------------| 

G|-----------------------------------------|
D|--------------------5h6h7-7h8h9----------|
A|--------3h4h5-5h6h7-------------5--------|
D|--5h6h7----------------------------------| 

G|-------------------------------------------------|
D|-------------------------------------------------|
A|-------5p3---------------------5p3---------------|
D|--5h7--------7p5-3h4h5-0---5h7-----7p5-3h4h5-0---| 

G|----------------|
D|----------------|
A|------5p3-------|
D|--5h7-----7p5---| 

G|-----------------------------------7~-----|
D|---------------------5h6h7-7h8h9----------|
A|--------3h4h5-5h6h7----------------5~-----|
D|--5h6h7-----------------------------------| 


G|-------------------------------------------------------|
D|-------------------------------------------------------|
A|-------------------------------------------------------|
D|-0----3----5--6--7------------7----10----3--5--0-------|  x2

G|-----------------------------------------------------------|
D|-----------------------------------------------------------|
A|---------------------3-----------3----5--------------------|
D|-0-----3----5--7--------------------------5--7--5--3--0----|  

G|---------------------------------------------------------|
D|---------------------------------------------------------|
A|---------------------------------------------------------|
D|-0-----3----5--7---4----------------5--7---10--7--5~-----|  

G|--------------------------------6------8-----9--------14----------|
D|------------------5------7----5------7------9------12-------------|
A|----4-----6-----5------7------------------------------------------|
D|--5-----7---------------------------------------------------14~---| 

G|--------------------------------------------------------------|
D|-0~-------------------------0~--------------------------------|
A|--------------------------------------------------------------|
D|-0~-----1--4----1--5--------0~----1-2-3-4-----0-1-5-7---------| 


G|-----------------------------------------------|
D|-----------------------------------------------|
A|-----------------------------------------------|
D|--22222222232232--333333333353353--------------| x2

G|-------------------------------------------------|
D|-------------------------------------------------|
A|--22222222232232---0000000020020-----------------|
D|-------------------------------------------------| x2

G|-----------------------------------------------|
D|-----------------------------------------------|
A|-----------------------------------------------|
D|--22222222232232--333333333353353--------------| x2

G|-----------------------------------------------------|
D|----------------------5h6h7-7h8h9--------------------|
A|---------3h4h5-5h6h7---------------5-----------------|
D|--5h6h7--------------------------------------==------| 

G|-------7p5---------------------7p5------------------|
D|--5h7-------7p5-3h4h5------5h7-----7p5-3h4h5--------|
A|-----------------------5---------------------5------|
D|----------------------------------------------------| 

G|-------7p5----------|
D|--5h7-------7p5-----|
A|--------------------|
D|--------------------| 

G|-----------------------------------------|
D|----------------------5h6h7-7h8h9--------|
A|---------3h4h5-5h6h7--------------5------|
D|--5h6h7----------------------------------| 

G|-------7p5---------------------7p5------------------|
D|--5h7-------7p5-3h4h5------5h7-----7p5-3h4h5--------|
A|-----------------------5---------------------5------|
D|----------------------------------------------------| 

G|-------7p5----------|
D|--5h7-------7p5-----|
A|--------------------|
D|--------------------| 

G|-----------------------------------------|
D|--------------------5h6h7-7h8h9----------|
A|--------3h4h5-5h6h7-------------5--------|
D|--5h6h7----------------------------------| 

G|-------------------------------------------------|
D|-------------------------------------------------|
A|-------5p3---------------------5p3---------------|
D|--5h7--------7p5-3h4h5-0---5h7-----7p5-3h4h5-0---| 

G|----------------|
D|----------------|
A|------5p3-------|
D|--5h7-----7p5---| 

G|-----------------------------------7~-----|
D|---------------------5h6h7-7h8h9----------|
A|--------3h4h5-5h6h7----------------5~-----|
D|--5h6h7-----------------------------------| 


G|-------------------------------------------------------|
D|-------------------------------------------------------|
A|-------------------------------------------------------|
D|-0----3----5--6--7------------7----10----3--5--0-------|  x2

G|-----------------------------------------------------------|
D|-----------------------------------------------------------|
A|---------------------3-----------3----5--------------------|
D|-0-----3----5--7--------------------------5--7--5--3--0----|  

G|---------------------------------------------------------|
D|---------------------------------------------------------|
A|---------------------------------------------------------|
D|-0-----3----5--7---4----------------5--7---10--7--5~-----|  

G|--------------------------------6------8-----9--------14----------|
D|------------------5------7----5------7------9------12-------------|
A|----4-----6-----5------7------------------------------------------|
D|--5-----7---------------------------------------------------14~---|

G|----------------------------------------------------------------|
D|----------------------------------------------------------------|
A|----------------------------------------------------------------|
D|-0~-------------------------------------------------------------| 
Suggest correction new What's this?
You can suggest a correction to this tab. Community and Mods will review your correction and vote to approve or reject it.
comments
print report bad tab
2 comments total.
0 reply
SuburbanBassist 56 wrote on July 4 2014, 04:45 pm

Lack of accuracy.

0 reply
SuburbanBassist 56 wrote on July 4 2014, 04:46 pm

They never tune in drop D, it's always D standard.

guest
You may want to rate the tab now too:
select rating
Please do not post tabs as comments. Select "correction" instead!