Oops, an error
Loading. Please wait.

Blasteroid Bass Tab

version 1
version 1

Whole song

Interactive

1,859 views 1 this week
2 commentsread comments
1 2 3 4 5
accurate
x 3
add to favorites
launch autoscroll
font size
0
reset
guitar tuner
Tab Pro tools
  • play this tab
  • loop segment
  • change instrument
  • show fretboard
  • metronome
×
Best way to learn
"Blasteroid"
Autoscroll
slow
fast
+/-
esc
set tempo
stop
Contributor
Difficulty
Tuning
intermediate
C G C F A D
                                  Blasteroid                                    


                                                                        Mastodon
Track 1



     Q    H           Q    H           Q    H                     
F||----------------|----------------|----------------|-----------|
C||----------------|----------------|----------------|-----------|
G||----------------|----------------|----------------|-----------|
C||--0-------------|--0-------------|--0-------------|-----------|


  Q    H           Q    H           Q    H                       Q    H         
----------------|----------------|----------------|-----------|----------------|
----------------|----------------|----------------|-----------|----------------|
----------------|----------------|----------------|-----------|----------------|
--0-------------|--0-------------|--0-------------|-----------|--0-------------|


  Q    H           Q    H                       Q    H           Q    H         
----------------|----------------|-----------|----------------|----------------|
----------------|----------------|-----------|----------------|----------------|
----------------|----------------|-----------|----------------|----------------|
--0-------------|--0-------------|-----------|--0-------------|--0-------------|


  Q    H           H         Q        Q    E  E  E  E  E  E   
----------------|------------------|-------------------------|
----------------|------------------|-------------------------|
----------------|------------------|----------7-----5--5-----|
--0-------------|-----------12\----|--0----0-----------------|


  E  E  E  E  E  E  E  E     Q    E  E  E  E  E  E     E  E  E  E  E  E  E  E   
--------------------------|-------------------------|--------------------------|
--------------------------|-------------------------|--------------------------|
--7-----5-----5--5--5--5--|----------7-----5--5-----|--7-----9-----9--9--9--9--|
--------------------------|--0----0-----------------|--------------------------|


  Q    E  E  E  E  E  E     E  E  E  E  E  E  E  E     Q    E  E  E  E  E  E   
-------------------------|--------------------------|-------------------------|
-------------------------|--------------------------|-------------------------|
----------9-----7--7-----|--9-----7-----7--7--7--7--|----------9-----7--7-----|
--0----0-----------------|--------------------------|--0----0-----------------|


  E  E  E  E  E  E  E  E     Q    E  E  E  E  E  E     E  E  E  E  E  E  E  E   
--------------------------|-------------------------|--------------------------|
--------------------------|-------------------------|--------------------------|
--7-----5-----5--5--5--5--|----------7-----5--5-----|--7-----5-----5--5--5--5--|
--------------------------|--0----0-----------------|--------------------------|


  Q    E  E  E  E  E  E     E  E  E  E  E  E  E  E     Q    E  E  E  E  E  E   
-------------------------|--------------------------|-------------------------|
-------------------------|--------------------------|-------------------------|
----------7-----5--5-----|--7-----9-----9--9--9--9--|----------9-----7--7-----|
--0----0-----------------|--------------------------|--0----0-----------------|


  E  E  E  E  E  E  E  E     Q    E  E  E  E  E  E     E  E  E  E  E  E  E  E   
--------------------------|-------------------------|--------------------------|
--------------------------|-------------------------|--------------------------|
--9-----7-----7--7--7--7--|----------9-----7--7-----|--7-----5-----5--5--5--5--|
--------------------------|--0----0-----------------|--------------------------|


  Q    E  E   E  E  Q                   Q    E  E   E  E  Q                 
-------------------------|-----------|-------------------------|-----------|
-----------------2-------|-----------|-----------------2-------|-----------|
----------0h--3----------|-----------|----------0h--3----------|-----------|
--0----0-----------------|-----------|--0----0-----------------|-----------|


  Q    E  E   E  E  Q                   Q    E  E   E  E  Q     
-------------------------|-----------|-------------------------|
-----------------2-------|-----------|-----------------2-------|
----------0h--3----------|-----------|----------0h--3----------|
--0----0-----------------|-----------|--0----0-----------------|


  H.            Q        Q    E  E  E  E  E  E     Q    E  E  E  E  E  E   
----------------------|-------------------------|-------------------------|
----------------------|-------------------------|-------------------------|
----------------------|----------8--8--8--8-----|----------8--8--8--8-----|
---------------12\----|--0----0-----------------|--0----0-----------------|


  Q    E  E  E  E  E  E     E    Q     Q     Q     E   
-------------------------|----------------------------|
-------------------------|------------------13--------|
----------8--8--8--8--8--|--8--/10----13----------10--|
--0----0-----------------|----------------------------|


  Q    E  E  E  E  E  E     Q    E  E  E  E  E  E     Q    E  E  E  E  E  E   
-------------------------|-------------------------|-------------------------|
-------------------------|-------------------------|-------------------------|
----------8--8--8--8-----|----------8--8--8--8-----|----------8--8--8--8--8--|
--0----0-----------------|--0----0-----------------|--0----0-----------------|


  E  Q     Q     E    E    E     Q    E  E  E  E  E  E   
----------------13h--14p--13--|-------------------------|
-----9----13------------------|-------------------------|
--8---------------------------|----------8--8--8--8-----|
------------------------------|--0----0-----------------|


  Q    E  E  E  E  E  E     Q    E  E  E  E  E  E   
-------------------------|-------------------------|
-------------------------|-------------------------|
----------8--8--8--8-----|----------8--8--8--8--8--|
--0----0-----------------|--0----0-----------------|


  E    Q     Q     Q     E     Q    E  E  E  E  E  E   
----------------------------|-------------------------|
------------------13--------|-------------------------|
--8--/10----13----------10--|----------8--8--8--8-----|
----------------------------|--0----0-----------------|


  Q    E  E  E  E  E  E     Q    E  E  E  E  E  E   
-------------------------|-------------------------|
-------------------------|-------------------------|
----------8--8--8--8-----|----------8--8--8--8--8--|
--0----0-----------------|--0----0-----------------|


  E  Q     Q     E    E    E     Q    E  E  E  E  E  E   
----------------13h--14p--13--|-------------------------|
-----9----13------------------|-------------------------|
--8---------------------------|----------7-----5--5-----|
------------------------------|--0----0-----------------|


  E  E  E  E  E  E  E  E     Q    E  E  E  E  E  E     E  E  E  E  E  E  E  E   
--------------------------|-------------------------|--------------------------|
--------------------------|-------------------------|--------------------------|
--7-----5-----5--5--5--5--|----------7-----5--5-----|--7-----9-----9--9--9--9--|
--------------------------|--0----0-----------------|--------------------------|


  Q    E  E  E  E  E  E     E  E  E  E  E  E  E  E     Q    E  E  E  E  E  E   
-------------------------|--------------------------|-------------------------|
-------------------------|--------------------------|-------------------------|
----------9-----7--7-----|--9-----7-----7--7--7--7--|----------9-----7--7-----|
--0----0-----------------|--------------------------|--0----0-----------------|


  E  E  E  E  E  E  E  E     Q    E  E  E  E  E  E     E  E  E  E  E  E  E  E   
--------------------------|-------------------------|--------------------------|
--------------------------|-------------------------|--------------------------|
--7-----5-----5--5--5--5--|----------7-----5--5-----|--7-----5-----5--5--5--5--|
--------------------------|--0----0-----------------|--------------------------|


  Q    E  E  E  E  E  E     E  E  E  E  E  E  E  E     Q    E  E  E  E  E  E   
-------------------------|--------------------------|-------------------------|
-------------------------|--------------------------|-------------------------|
----------7-----5--5-----|--7-----9-----9--9--9--9--|----------9-----7--7-----|
--0----0-----------------|--------------------------|--0----0-----------------|


  E  E  E  E  E  E  E  E     Q    E  E  E  E  E  E     E  E  E  E  E  E  E  E   
--------------------------|-------------------------|--------------------------|
--------------------------|-------------------------|--------------------------|
--9-----7-----7--7--7--7--|----------9-----7--7-----|--7-----5-----5--5--5--5--|
--------------------------|--0----0-----------------|--------------------------|


  Q    E  E   E  E  Q                   Q    E  E   E  E  Q                 
-------------------------|-----------|-------------------------|-----------|
-----------------2-------|-----------|-----------------2-------|-----------|
----------0h--3----------|-----------|----------0h--3----------|-----------|
--0----0-----------------|-----------|--0----0-----------------|-----------|


  Q    E  E   E  E  Q                   Q    E  E   E  E  Q     
-------------------------|-----------|-------------------------|
-----------------2-------|-----------|-----------------2-------|
----------0h--3----------|-----------|----------0h--3----------|
--0----0-----------------|-----------|--0----0-----------------|


  H.            Q        Q    E  E  E  E  E  E     Q    E  E  E  E  E  E   
----------------------|-------------------------|-------------------------|
----------------------|-------------------------|-------------------------|
----------------------|----------8--8--8--8-----|----------8--8--8--8-----|
---------------12\----|--0----0-----------------|--0----0-----------------|


  Q    E  E  E  E  E  E     E    Q     Q     Q     E   
-------------------------|----------------------------|
-------------------------|------------------13--------|
----------8--8--8--8--8--|--8--/10----13----------10--|
--0----0-----------------|----------------------------|


  Q    E  E  E  E  E  E     Q    E  E  E  E  E  E     Q    E  E  E  E  E  E   
-------------------------|-------------------------|-------------------------|
-------------------------|-------------------------|-------------------------|
----------8--8--8--8-----|----------8--8--8--8-----|----------8--8--8--8--8--|
--0----0-----------------|--0----0-----------------|--0----0-----------------|


  E  Q     Q     E    E    E     Q    E  E  E  E  E  E   
----------------13h--14p--13--|-------------------------|
-----9----13------------------|-------------------------|
--8---------------------------|----------8--8--8--8-----|
------------------------------|--0----0-----------------|


  Q    E  E  E  E  E  E     Q    E  E  E  E  E  E   
-------------------------|-------------------------|
-------------------------|-------------------------|
----------8--8--8--8-----|----------8--8--8--8--8--|
--0----0-----------------|--0----0-----------------|


  E    Q     Q     Q     E     Q    E  E  E  E  E  E   
----------------------------|-------------------------|
------------------13--------|-------------------------|
--8--/10----13----------10--|----------8--8--8--8-----|
----------------------------|--0----0-----------------|


  Q    E  E  E  E  E  E     Q    E  E  E  E  E  E   
-------------------------|-------------------------|
-------------------------|-------------------------|
----------8--8--8--8-----|----------8--8--8--8--8--|
--0----0-----------------|--0----0-----------------|


  E  Q     Q     E    E    E     Q    H           Q    H         
----------------13h--14p--13--|----------------|----------------|
-----9----13------------------|----------------|----------------|
--8---------------------------|----------------|----------------|
------------------------------|--0-------------|--0-------------|


  Q    H                       Q    H           Q    H           Q    H         
----------------|-----------|----------------|----------------|----------------|
----------------|-----------|----------------|----------------|----------------|
----------------|-----------|----------------|----------------|----------------|
--0-------------|-----------|--0-------------|--0-------------|--0-------------|


               H.               H.               H.               H.            
-----------|-----------------|---------------|-----------------|---------------|
-----------|-----------------|---------------|-----------------|---------------|
-----------|-----------------|---------------|-----------------|---------------|
-----------|--12\------------|--L------------|--12\------------|--L------------|


   H.               H.              Q    E  E  E  E     E  E  E  E  E  E   
-----------------|---------------|-------------------|--------------------|
-----------------|---------------|-------------------|-----9--7--------7--|
-----------------|---------------|--5----7--5--5--7--|--9--------9--7-----|
--12\------------|--L------------|-------------------|--------------------|


  H.              H.             
---------------|---------------||
---------------|---------------||
---------------|---------------||
--0------------|--L------------||




Duration Legend
---------------
W - whole
H - half
Q - quarter
E - 8th
S - 16th
T - 32nd
X - 64th
. - note dotted
|-n-|  - n-tuplets
comments
We did not receive enough feedback on this tab! Please rate:
print report bad tab
1 2 3 4 5
2 comments total.
0 reply
SuburbanBassist wrote on October 21 2014, 01:15 am

Lack of formatting. Lack of accuracy. This tab is difficult to follow and read, the sections of the songs are not clearly distinguished, and it does not help when it comes to trying to learn how to play this song.

0 reply
SuburbanBassist wrote on October 21 2014, 01:15 am

This tab is difficult to follow and read, the sections of the songs are not clearly distinguished, and it does not help when it comes to trying to learn how to play this song.

I want to post or [tab]
guest
You may want to rate the tab now too:
select rating
Please do not post tabs as comments. Select "correction" instead!