Oops, an error
Loading. Please wait.

Blood And Thunder Tab

version 1
version 1

Whole song

90,631 views 201 this week
7 commentsread comments
1 2 3 4 5
worth learning
x 10
add to favorites
launch autoscroll
font size
0
reset
how to read this tab
guitar tuner
Autoscroll
slow
fast
+/-
esc
set tempo
stop
Help us to improve Ultimate-Guitar.com Take our survey!
×
[Intro and Verses]

e|-------------------------------------------------------------------------------|
B|-------------------------------------------------------------------------------|
G|-------------------------------------------------------------------------------|
D|-7-----7/9-----7/9-----7/9----7/9--10----7/9--10----10-10-9\7/10\9-------------|
A|-5-----5/9-----5/9-----5/7----5/7--8-----5/7--8------8--8-7\5/8\7--------------|
E|---0-0-----0-0----0-0-----0-0--------0-0--------0-0----------------------------|


[Chorus 1, 2]

e|------------------------------------------------------------------------------|
B|------------------------------------------------------------------------------|
G|------------------------------------------------------------------------------|
D|----------------------------------------12-12--9-9--6--12--9-9--6-------------|
A|-2--8-8--5-5--11-11--7-7--14-14--11-11--10-10--7-7--4--10--7-7--4-7bu(8)bd(7)-|
E|-0--6-6--3-3---9--9--9-9--12-12---9--9----------------------------------------|


[Interlude/Solo]

(low harmony)

e|----------------------------------------------------------------------------|
B|-----------------------5-------------------------5---5----------------------|
G|-4-5-4h5p4---4-5-4-5-7-----4-5-4h5p4---4-5-4-5-7---7------------------------|
D|-----------7-------------------------7--------------------------------------|
A|----------------------------------------------------------------------------|
E|----------------------------------------------------------------------------|

e|----------------------------------------------------------------------------|
B|-----------------------3-------------------------3---3----------------------|
G|-2-3-2h3p2---2-3-2-3-5-----2-3-2h3p2---2-3-2-3-5---5------------------------|
D|-----------5-------------------------5--------------------------------------|
A|----------------------------------------------------------------------------|
E|----------------------------------------------------------------------------|
                                   
e|--------------------------------| 
B|-------------------5------------|(play begining of riffs like whats in brackets after u play through whats
G|-4-5-4---4-5-4-5-7--------------| above twice)
D|-------7------------------------|(same patterns follows for high harmony)
A|--------------------------------|
E|--------------------------------|

(high harmony)

e|----------------------------------12---------------------------------12---12-|
B|-12-13-12h13p12----12-13-12-13-15----12-13-12h13p12----12-13-12-13-15---15---|
G|----------------14----------------------------------14-----------------------|
D|-----------------------------------------------------------------------------|
A|-----------------------------------------------------------------------------|
E|-----------------------------------------------------------------------------|

e|----------------------------------10---------------------------------10---10-|
B|-10-11-10h11p10----10-11-10-11-13----10-11-10h11p10----10-11-10-11-13---13---|
G|----------------12----------------------------------12-----------------------|
D|-----------------------------------------------------------------------------|
A|-----------------------------------------------------------------------------|
E|-----------------------------------------------------------------------------|

(Rhythm during 1st 2 times of solo riff)

e|----------------------------------------------------------------------------|
B|----------------------------------------------------------------------------|
G|----------------------------------------------------------------------------|
D|-4--4----4--4----2--2----2--2-----------------------------------------------|
A|-2--2----2--2----0--0----0--0-----------------------------------------------|
E|----------------------------------------------------------------------------|

(Interlude after Solo section)(x4)

e|----------------------------------------------------------------------------|
B|----------------------------------------------------------------------------|
G|----------------------------------------------------------------------------|
D|-9-9-9-9-9-9-9-9-9-9-9-9--7-7-7-7--10-10-10-9--7-7-7-7-7-7-7-7--------------|
A|-7-7-7-7-7-7-7-7-7-7-7-7--5-5-5-5---8--8--8-7--5-5-5-5-5-5-5-5--------------|
E|----------------------------------------------------------------------------|

e|----------------------------------------------------------------------------|
B|----------------------------------------------------------------------------|
G|----------------------------------------------------------------------------|
D|-4-4-4-4--7-7-7-5--4-4-4-4-4-4-4-4------------------------------------------|
A|-2-2-2-2--5-5-5-3--2-2-2-2-2-2-2-2--6-6-6-6--9-9-9-7--6-6-6-6--4-4-4-4------|
E|------------------------------------4-4-4-4--7-7-7-5--4-4-4-4--2-2-2-2------|

(Chorus twice and then verse twice)


[Outro] 
                                                              [Last 2 Chords]
e|------------------------------------------------------------[-------------]-|
B|-10-9-9\\\\-----------------7-9-9\\\\-----------------------[-------------]-|
G|-10-9-9\\\\-----------------7-9-9\\\\-----------------------[-------------]-|
D|-10-9-9\\\\-----------------7-9-9\\\\-----------------------[-7--9--------]-|
A|--8-7-7\\\\-----------------5-7-7\\\\-----------------------[-5--7--------]-|
E|------------2-1-0-1-2-1-0-1-----------2-1-0-1-2-1-0-1-------[-------------]-|

harmony during ourto is:

e|------------------------------|
B|------------------------------|
G|------------------------------|
D|-12/13-13-THEN-14\13-13-------|
A|-10/11-11------12\11-11-------|
E|------------------------------|

************************************

/ = slide up
\ = slide down
h = hammer on
p = pull off
bu = bend up till it reaches pitch of note in parentheses
bd = bend down

************************************
Suggest correction new What's this?
You can suggest a correction to this tab. Community and Mods will review your correction and vote to approve or reject it.
comments
print report bad tab
7 comments total. Showing first comments.
-1 reply
DeRais 115 wrote on January 26 2005, 12:00 am

One of the best tabs I have ever seen. Done by a professional.

0 reply
sheldonplank 99 wrote on April 29 2006, 07:44 am

the harmony part on your tab is totally wrong, not the position, but the shape. it doesnt sound at all right

-1 reply
Bushido69 10 wrote on September 2 2006, 07:07 am

good tab but its a whole lot easyer if you tune the guitar to drop d and play the chorus in barre chords
just move the rest of the tab down 2 frets on strings 1-5

guest
You may want to rate the tab now too:
select rating
Please do not post tabs as comments. Select "correction" instead!