Oops, an error
Loading. Please wait.

Blood And Thunder Bass Tab

version 2
version 2

Whole song

4,797 views 21 this week
no commentswrite comment
1 2 3 4 5
please rate
add to favorites
launch autoscroll
font size
0
reset
guitar tuner
Autoscroll
slow
fast
+/-
esc
set tempo
stop
Help us to improve Ultimate-Guitar.com Take our survey!
×
Author
Difficulty
intermediate
Band: Mastodon
Song: Blood And Thunder
Album: Leviathan
Tabbed by: choke383
one step down: FCGD


0:10
F|-------------------------------------------|
C|-------------------------------------------|
G|7--5h7--5h7--5h7--5h7-8--5h7-8--88\7\5/8\--|
D|-00---00---00---00-----00-----00-----------|x4


0:32
F|----------------------------------------------------|
C|---------------22----55-22-------55-22--------------|
G|---11----44-11----44-------44----------44-----7bub--| <-bend-unbend-bend
D|0-----33--------------------------------------------|x2


0:52
F|-------------------------------------------|
C|-------------------------------------------|
G|7--5h7--5h7--5h7--5h7-8--5h7-8--88\7\5/8\--|
D|-00---00---00---00-----00-----00-----------|x4


1:13
F|----------------------------------------------------|
C|---------------22----55-22-------55-22--------------|
G|---11----44-11----44-------44----------44-----7bub--| <-bend-unbend-bend
D|0-----33--------------------------------------------|x2


1:33
F|----------------------------------------------|
C|----------------------------------------------|
G|----------------------------------------------|
D|00----00----5-5--5-5----77----77----5-5--5-5--|


1:47
F|----------------------------------------------------|
C|----------------------------------------------------|
G|--------------------------------3h5---------3h53h5--|
D|7-\-5-3-p0-7-\-5-3-p0-0-5-\-3-1-----5-\-3-1---------|x4


2:16
F|-------------------------------------------------------------------|
C|-------------------------------------------------------------------|
G|7777777777775555888755555555----555--------------------------------|
D|----------------------------7777---87777777744447775444444442h3p2--|x4


2:56
F|----------------------------------------------------|
C|---------------22----55-22-------55-22--------------|
G|---11----44-11----44-------44----------44-----7bub--| <-bend-unbend-bend
D|0-----33--------------------------------------------|x2


3:16
F|-------------------------------------------|
C|-------------------------------------------|
G|7--5h7--5h7--5h7--5h7-8--5h7-8--88\7\5/8\--|
D|-00---00---00---00-----00-----00-----------|x2


3:27
F|-----------------------------|
C|-----------------------------|
G|-----------------------------|
D|0-0--32023202-0-0--32023202--|x2

F|-----------------------------|
C|02-2----------32-2-----------|
G|-----------------------------|
D|-----32023202------32023202--|x2

F|-----|
C|-02--|
G|-----|
D|-----|



Any comments, questions or jokes send to style444@hotmail.com
Suggest correction
Give kudos to tab author, rate the tab!
1 2 3 4 5
comments
print report bad tab
guest
You may want to rate the tab now too:
select rating
Please do not post tabs as comments. Select "correction" instead!