Oops, an error
Loading. Please wait.
We have an official Blood And Thunder tab made by UG professional guitarists. Check out the tab »
×

Blood And Thunder bass

151 views 3 this week
no commentswrite comment
1 2 3 4 5
3 more votes to show rating
add to favorites
×
Save as Personal and add changes to this tab that will be seen only by you. Learn more ›
×
You can save this tab as Personal to edit and correct it or add notes. All changes will be seen only by you. Learn more »
launch autoscroll
font size
0
reset
guitar tuner
backing track
0:00
0:00
edit
Autoscroll
slow
fast
+/-
esc
set tempo
stop
Author
Difficulty
About this tab version
Transcribed for a 5 String Bass in Standard Tuning. Was this info helpful? Yes No
Mastodon - Blood And Thunder

tuning (low to high) - B E A D G
Time Signatures marked above lines

 Intro/Verse
   4/4
G|-----------------------------|-----------------------------|
D|-----------------------------|-----------------------------|
A|-----------------------------|-----------------------------|
E|---11---9h11---9h11---9h11-9-|-11-12---9h11-12---12p11h9h12|
B|-----3-3----3-3----3-3----3--|---3--3-3----3--3-3----------|  you could also play 15 on B
       . .    . .    . .    .      .  . .    .  . .
G|-----------------------------|-----------------------------|
D|-----------------------------|-----------------------------|
A|-----------------------------|-----------------------------|
E|---11---9h11---9h11---9h11-9-|-11-12---9h11-12---12p11h9h12|
B|-----3-3----3-3----3-3----3--|---3--3-3----3--3-3----------|
       . .    . .    . .    .      .  . .    .  . .
G|-----------------------------|-----------------------------|
D|-----------------------------|-----------------------------|
A|-----------------------------|-----------------------------|
E|---11---9h11---9h11---9h11-9-|-11-12---9h11-12---12p11h9h12|
B|-----3-3----3-3----3-3----3--|---3--3-3----3--3-3----------|
       . .    . .    . .    .      .  . .    .  . .
G|-----------------------------|-----------------------------|
D|-----------------------------|-----------------------------|
A|-----------------------------|-----------------------------|
E|---11---9h11---9h11---9h11-9-|-11-12---9h11-12---12p11h9h12|
B|-----3-3----3-3----3-3----3--|---3--3-3----3--3-3----------|
       . .    . .    . .    .      .  . .    .  . .

 Chorus  
G|-------------------------|------------------------------|-----------------------------|------------------|
D|-------------------------|------------------------------|-----------------------------|------------------|
A|-------------------------|------------------------------|-----------------------------|------------------|
E|-------------------------|------------------------------|-----------------------------|------------------|
B|-3--/9-9--6-6--/12-12--9-|-9--/15-15--12-12--/18-18--15-|-15--12-12--(12)--/18-18--15-|-15--12-12----15--|

G|-------------------------|------------------------------|-----------------------------|------------------|
D|-------------------------|------------------------------|-----------------------------|------------------|
A|-------------------------|------------------------------|-----------------------------|------------------|
E|-------------------------|------------------------------|-----------------------------|------------------|
B|-3--/9-9--6-6--/12-12--9-|-9--/15-15--12-12--/18-18--15-|-15--12-12--(12)--/18-18--15-|-15--12-12----15--|



Intro/Verse
G|-----------------------------|-----------------------------|
D|-----------------------------|-----------------------------|
A|-----------------------------|-----------------------------|
E|---11---9h11---9h11---9h11-9-|-11-12---9h11-12---12p11h9h12|
B|-----3-3----3-3----3-3----3--|---3--3-3----3--3-3----------|
       . .    . .    . .    .      .  . .    .  . .
G|-----------------------------|-----------------------------|
D|-----------------------------|-----------------------------|
A|-----------------------------|-----------------------------|
E|---11---9h11---9h11---9h11-9-|-11-12---9h11-12---12p11h9h12|
B|-----3-3----3-3----3-3----3--|---3--3-3----3--3-3----------|
       . .    . .    . .    .      .  . .    .  . .
G|-----------------------------|-----------------------------|
D|-----------------------------|-----------------------------|
A|-----------------------------|-----------------------------|
E|---11---9h11---9h11---9h11-9-|-11-12---9h11-12---12p11h9h12|
B|-----3-3----3-3----3-3----3--|---3--3-3----3--3-3----------|
       . .    . .    . .    .      .  . .    .  . .
G|-----------------------------|-----------------------------|
D|-----------------------------|-----------------------------|
A|10---------------------------|-----------------------------|
E|8--11---9h11---9h11---9h11-9-|-11-12---9h11-12---12h11h9h12|
B|-----3-3----3-3----3-3----3--|---3--3-3----3--3-3----------|
       . .    . .    . .    .      .  . .    .  . .

Chorus
G|-------------------------|------------------------------|-----------------------------|------------------|
D|-------------------------|------------------------------|-----------------------------|------------------|
A|-------------------------|------------------------------|-----------------------------|------------------|
E|-------------------------|------------------------------|-----------------------------|------------------|
B|-3--/9-9--6-6--/12-12--9-|-9--/15-15--12-12--/18-18--15-|-15--12-12--(12)--/18-18--15-|-15--12-12----15--|

G|-------------------------|------------------------------|-----------------------------|------------------|
D|-------------------------|------------------------------|-----------------------------|------------------|
A|-------------------------|------------------------------|-----------------------------|------------------|
E|-------------------------|------------------------------|-----------------------------|------------------|
B|-3--/9-9--6-6--/12-12--9-|-9--/15-15--12-12--/18-18--15-|-15--12-12--(12)--/18-18--15-|-15--12-12----15--|

 Interlude
   5/8          6/8           5/8            6/8
G|------------|-------------|--------------|---------------|
D|------------|-------------|--------------|---------------|
A|------------|-------------|--------------|---------------|
E|------------|-------------|---4--4--(4)--|---4--4--(4)---|
B|---3-3------|---3-3-------|--------------|---------------|
   5/8          6/8           5/8            6/8
G|------------|-------------|--------------|---------------|
D|------------|-------------|--------------|---------------|
A|------------|-------------|--------------|---------------|
E|---6-6------|---6-6-------|--------------|---------------|
B|------------|-------------|---3--3--(3)--|---3--3--(3)---|
   5/8              6/8                 5/8              6/8
G|----------------|-------------------|----------------|---------------------|
D|----------------|-------------------|----------------|---------------------|
A|----------------|-------------------|----------------|---------------------|
E|----------------|-----------------6-|-----------9h11-|-----------9h11p9h11-|
B|---10--8--6--3/-|--/10--8--6--3h5---|---8--6--3------|---8--6--3-----------|
   5/8              6/8                 5/8              6/8
G|----------------|-------------------|----------------|---------------------|
D|----------------|-------------------|----------------|---------------------|
A|----------------|-------------------|----------------|---------------------|
E|----------------|-----------------6-|-----------9h11-|-----------9h11p9h11-|
B|---10--8--6--3/-|--/10--8--6--3h5---|---8--6--3------|---8--6--3-----------|
   5/8              6/8                 5/8              6/8
G|----------------|-------------------|----------------|---------------------|
D|----------------|-------------------|----------------|---------------------|
A|----------------|-------------------|----------------|---------------------|
E|----------------|-----------------6-|-----------9h11-|-----------9h11p9h11-|
B|---10--8--6--3/-|--/10--8--6--3h5---|---8--6--3------|---8--6--3-----------|
   5/8              6/8                 5/8              6/8
G|----------------|-------------------|----------------|---------------------|
D|----------------|-------------------|----------------|---------------------|
A|----------------|-------------------|----------------|---------------------|
E|----------------|-----------------6-|-----------9h11-|-----------9h11p9h11-|
B|---10--8--6--3/-|--/10--8--6--3h5---|---8--6--3------|---8--6--3-----------|


 Bridge 
   4/4
G|-----------------------------|-------------------------------------|---------------------------------|
D|-----------------------------|-------------------------------------|---------------------------------|
A|-----------------------------|-------------------------------------|---------------------------------|
E|---11-11-11-11-11-11-9-9-9-9-|-12-12-12-10-9-9-9-9-9-9-9-9-6-6-6-6-|-9-9-9-7-6-6-6-6-6-6-6-6---------|
B|-----------------------------|-------------------------------------|-------------------------7-7-7-7-|
     .  .  .  .  .  .  . . . .   .  .  .  .  . . . . . . . . . . . .   . . . . . . . . . . . . . . . . 
G|---------------------------------|
D|---------------------------------|
A|---------------------------------|
E|-6-6-6-4-------------------------|
B|---------7-7-7-7-7-7-7-7-6-5h6-5-|
   . . . . . . . . . . . . . 
G|-----------------------------|-------------------------------------|---------------------------------|
D|-----------------------------|-------------------------------------|---------------------------------|
A|-----------------------------|-------------------------------------|---------------------------------|
E|---11-11-11-11-11-11-9-9-9-9-|-12-12-12-10-9-9-9-9-9-9-9-9-6-6-6-6-|-9-9-9-7-6-6-6-6-6-6-6-6---------|
B|-----------------------------|-------------------------------------|-------------------------7-7-7-7-|
     .  .  .  .  .  .  . . . .   .  .  .  .  . . . . . . . . . . . .   . . . . . . . . . . . . . . . . 
G|---------------------------------|
D|---------------------------------|
A|---------------------------------|
E|-6-6-6-4-------------------------|
B|---------7-7-7-7-7-7-7-7-6-5h6-5-|
   . . . . . . . . . . . . . 
G|-----------------------------|-------------------------------------|---------------------------------|
D|-----------------------------|-------------------------------------|---------------------------------|
A|-----------------------------|-------------------------------------|---------------------------------|
E|---11-11-11-11-11-11-9-9-9-9-|-12-12-12-10-9-9-9-9-9-9-9-9-6-6-6-6-|-9-9-9-7-6-6-6-6-6-6-6-6---------|
B|-----------------------------|-------------------------------------|-------------------------7-7-7-7-|
     .  .  .  .  .  .  . . . .   .  .  .  .  . . . . . . . . . . . .   . . . . . . . . . . . . . . . . 
G|---------------------------------|
D|---------------------------------|
A|---------------------------------|
E|-6-6-6-4-------------------------|
B|---------7-7-7-7-7-7-7-7-6-5h6-5-|
   . . . . . . . . . . . . . 
G|-----------------------------|-------------------------------------|---------------------------------|
D|-----------------------------|-------------------------------------|---------------------------------|
A|-----------------------------|-------------------------------------|---------------------------------|
E|---11-11-11-11-11-11-9-9-9-9-|-12-12-12-10-9-9-9-9-9-9-9-9-6-6-6-6-|-9-9-9-7-6-6-6-6-6-6-6-6---------|
B|-----------------------------|-------------------------------------|-------------------------7-7-7-7-|
     .  .  .  .  .  .  . . . .   .  .  .  .  . . . . . . . . . . . .   . . . . . . . . . . . . . . . . 
G|---------------------------------|
D|---------------------------------|
A|---------------------------------|
E|-6-6-6-4-------------------------|
B|---------7-7-7-7-7-7-7-7-6-5h6-5-|
   . . . . . . . . . . . . . 
Chorus
G|-------------------------|------------------------------|-----------------------------|------------------|
D|-------------------------|------------------------------|-----------------------------|------------------|
A|-------------------------|------------------------------|-----------------------------|------------------|
E|-------------------------|------------------------------|-----------------------------|------------------|
B|-3--/9-9--6-6--/12-12--9-|-9--/15-15--12-12--/18-18--15-|-15--12-12--(12)--/18-18--15-|-15--12-12----15--|

G|-------------------------|------------------------------|-----------------------------|------------------|
D|-------------------------|------------------------------|-----------------------------|------------------|
A|-------------------------|------------------------------|-----------------------------|------------------|
E|-------------------------|------------------------------|-----------------------------|------------------|
B|-3--/9-9--6-6--/12-12--9-|-9--/15-15--12-12--/18-18--15-|-15--12-12--(12)--/18-18--15-|-15--12-12----15--|


Intro/Verse
G|-----------------------------|-----------------------------|
D|-----------------------------|-----------------------------|
A|-----------------------------|-----------------------------|
E|---11---9h11---9h11---9h11-9-|-11-12---9h11-12---12p11h9h12|
B|-----3-3----3-3----3-3----3--|---3--3-3----3--3-3----------|
       . .    . .    . .    .      .  . .    .  . .
G|-----------------------------|-----------------------------|
D|-----------------------------|-----------------------------|
A|-----------------------------|-----------------------------|
E|---11---9h11---9h11---9h11-9-|-11-12---9h11-12---12p11h9h12|
B|-----3-3----3-3----3-3----3--|---3--3-3----3--3-3----------|
       . .    . .    . .    .      .  . .    .  . .


 Outro
G|-----------------------|-----------------------|-----------------------|-----------------------|
D|-----------------------|-----------------------|-----------------------|-----------------------|
A|-----------------------|-----------------------|-----------------------|-----------------------|
E|-----------------------|--------------------10-|-----------------------|--------------------10-|
B|-3--3--5p4p3h4h5p4p3h4-|-3--3--5p4p3h4h5p4p3---|-3--3--5p4p3h4h5p4p3h4-|-3--3--5p4p3h4h5p4p3---|

G|-------------------------|------------------------|-------------------------|------------------------|----||
D|-------------------------|------------------------|-------------------------|------------------------|----||
A|-------------------------|------------------------|-------------------------|------------------------|----||
E|-11--11---------------12-|-11-11---------------10-|-11--11---------------12-|-11--11-----------------|----||
B|---------5p4p3h4h5p4p3---|--------5p4p3h4h5p4p3---|---------5p4p3h4h5p4p3---|---------5p4p3h4h5p4p33-|-3--||


--------------------------------------------------------------------------------------------------------------
h- hammer on
p- pull off
/- slide up
(n)- ghost note
.- play staccato 
Suggest correction
Creating personal tab
Creating personal tab
You can edit any tab online and save it as your Personal.

You can edit, replace or remove any tab part or add personal notes – all changes will be seen only by you.

Personal tabs can be accessed anytime from any device, even offline.
Learn more »
Give kudos to tab author, rate the tab!
1 2 3 4 5
comments
print report bad tab
guest
You may want to rate the tab now too:
select rating
Wanna post a correction for this tab? Suggest correction