Oops, an error
Loading. Please wait.

Capillarian Crest Tab

version 1
version 1

Whole song

Interactive

11,232 views 3 this week
4 commentsread comments
1 2 3 4 5
1 last vote to show rating
add to favorites
launch autoscroll
font size
0
reset
how to read this tab
guitar tuner
Autoscroll
slow
fast
+/-
esc
set tempo
stop
Help us to improve Ultimate-Guitar.com Take our survey!
×
Mastodon Capillarian Crest


Tuning-down 1 step

Intro									x3
|---------8----------8--------------------------------12----------------|
|------10---10---------6--------------0------------10----10-------------|
|--0-9---------9------------------------8-9---0--9----------9-----------|
|----------------10-------10----9-10--------------------------10--------|
|----------------------------10-----------------------------------------|
|-----------------------------------------------------------------------|

|-----------------------------------------------------------------------|
|-----------------------------------------------------------------------|
|-----------------------------------------------------------------------|
|---5-------5-----5-----5-----5-----5-----5-----------------------------|
|-----5---7-----7-----7-----7-----2-----3-------------------------------|
|-5-----7-----8-----6-----8-----2-----3---------------------------------|

Riff1 x2
|--------------------------|----------------------------|
|--------------------------|----------------------------|
|--------------------------|--------------------4/9-----|
|----10---6-6---------4-5--|----10---6/------5-5--------|
|-----8---4-4-----5-5------|-----8---4/--0-4------------|
|-0-0---0-----0-0----------|-0-0---0--------------------|

Riff2  x2
|----------------------------------------------------------------------|
|----------------------------------------------------------------------|
|----------------------------------------------------------------------|
|----10---6--6---3---3-----------------10---6/10---3---3---------------|
|-----8---4--4---1---1------------------8---4/8----5---5-----7-7-8-10--|
|-0-0---0------0---0---0-0-4-3-4-6—-0-0---0------0---0---0-0-----------|

Repeat intro, riff2, riff1

Instrumental part:
1                           2              3	     
|-0----0--8-----0*----8*-8*-|-------------|--------------------|
|---10------8-----10*-------|-0---0-------|-0----0--------8*---|
|-------------9-------------|---8---9-8-5-|---10---9-10-7---9*-|
|---------------------------|-------------|--------------------|
|---------------------------|-------------|--------------------|
|---------------------------|-------------|--------------------|
4                    *3rd time only                    *4th time only
|------------------------|
|-0----0------------8----|
|---10---(9-10-7)x7---9--|
|------------------------|
|------------------------|
|------------------------|
order
1 x3
2 x4
1 x3
3 x4
1 x3
2 x4
1 x3
4 x1
1 x3
 
Faster section:
1								
|---10---------------------10---------------------|
|-0----8---0-8---0-8---0-0----8---0-8---0-10----0-|
|--------9-----9-----9----------9-----9------11---|
|-------------------------------------------------|
|-------------------------------------------------|
|-------------------------------------------------|
2					
|---------------------------------|
|-0-------8---------------11------|
|---8-9-9—-9-9-9------8-9-------9-|
|----------------9/10--------10---|
|---------------------------------|
|---------------------------------|
3                                                    4
|------------10-------------------------13----12----|----------------|
|-0-11-12-12----11-12-12----------11-12----12----12-|----------------|
|------------------------11-12-12-------------------|-11-11-11-11-12-|
|---------------------------------------------------|----------------|
|---------------------------------------------------|----------------|
|---------------------------------------------------|----------------|

Order:
1 x2
2 x2
1 x2
3 x2
1 x2
2 x2
1 x2
3 x2
1 x2
4 x1

|------------------------|-----------|------------------------|-----------|
|------------------------|-----------|------------------------|-----------|
|------------------------|-----------|------------------------|--3--3---3-|
|------------------------|--3—-3---3-|-2—-2--2-2—-2--2-2--2-2-|--3--3---3-|
|-2--2—-2-2—-2—-2-2—-2-2-|--3—-3---3-|-0—-0--0-0—-0--0-0--0-0-|--1-—1---1-|
|-0—-0-—0-0—-0--0-0--0-0-|--1—-1---1-|------------------------|-----------|

Riff 5:
|---------------------------------------------------|
|---------------------------------------------------|
|---------------------------------------------------|
|---------------------------------------------------|
|-----------------------------------4-4-4-4-5-5-5-5-|
|-0-1-1-1-1-1-1-1-1-1-1-1-1-0-0-0-0-----------------|

|-------------------------------------|
|-------------------------------------|
|-------------------------4-4-6-6—p.h-|
|-----------------4-4-5-5----------8--|
|-8-8-----5-5-4-4---------------------|
|-----6-6-----------------------------| x2
 
Riff6:
|---------------------|---------------------|
|---------------------|---------------------|
|---------------------|---------------------|
|-----------------3-3-|-------------3-3-----|
|---------4-4-5-5-----|-----4-4-5-5-----5-5-|
|-0-0-4-4-------------|-0-0-----------------| x8

Riff 5 x1

Riff7:
|-----------|---------------------------|
|-----------|---------------------------|
|-----------|---------------------------|
|-7-6-------|---------------------------|
|-5-4-8-7-2-|---------------------------|
|-----6-5-0-|-0-2-2-2-2-2-2-2-2-2-2-2-2-|

|-------------|---------------------------------|
|-------------|---------------------------------|
|-------------|---------------------------------|
|-7-6---------|---------------------------------|
|-5-4-8-7-----|---------------------------------|
|-----6-5-0h2-|-0-1-1-1-1-1-1-1-1-1-1-1-1-1-1-1-| x2

Riff9:
|---------------------------------|---------------------------------|
|---------------------------------|---------------------------------|
|---------------------------------|---------------------------------|
|---------------------------------|---------------------------------|
|---------------------------------|---------------------------------|
|-0-0-0-0-0-0-1-1-1-1-1-1-6-6-6-6-|-5-5-5-5-5-5-5-5-5-5-5-5-5-5-5-5-|

|-------------------------------------|-------------------------------------|
|-------------------------------------|-------------------------------------|
|-------------------------------------|-------------------------------------|
|-------------------------------------|-------------------------------------|
|-------------------------------------|-------------------------------------|
|-5-5-5-5-5-5-8-8-8-8-8-8-10-10-10-10-|-12-12-12-12-12-12-12-12-12-12-12-12-|

Ending:
|---------------------------------------------------|
|---------------------------------------------------|
|---------------------------------------------------|
|-9-9----------7-7----------4-4---------2-2---------|
|-----7-7----------4-4----------2-2---------0-0-----|
|---------9-9----------7-7----------5-5---------2-2-|

|-------------------------------------------------|----------|
|-------------------------------------------------|----------|
|-------------------------------------------------|----------|
|-------------------------------------------------|-7//////0-|
|-------------------------------------------------|-7//////0-|
|-2-2-2-2-4-4-4-4-5-5-5-5-5-5-5-5-5-5-5-5-5-5-5-5-|-5//////0-|
Suggest correction
Give kudos to tab author, rate the tab!
1 2 3 4 5
comments
print report bad tab
4 comments total. Showing first comments.
+2 reply
[ LiAm ] 436 Oct 04, 2008 11:20 PM

dam this is confusing!

0 reply
fiskers 10 Jan 24, 2009 08:18 PM

hahaha, i hear yah. damn that intros ****ed...i can't get the timing.

0 reply
DreadFace 164 Jul 18, 2009 12:21 AM

The reason your probably having troubles with the timing is because... im pretty sure it's in 5/4

guest
You may want to rate the tab now too:
select rating
Wanna post a correction for this tab? Suggest correction