Oops, an error
Loading. Please wait.

Capillarian Crest Guitar Pro

version 3
version 3

Whole song

Interactive

2,447 views 1 this week
2 commentsread comments
1 2 3 4 5
excellent!
x 2
add to favorites
guitar tuner
Autoscroll
slow
fast
+/-
esc
set tempo
stop
Contributor
Difficulty
Tuning
Filesize
Instruments
advanced
D G C F A D
23 Kb
lead guitar
"Capillarian Crest"
demo version
Play now

or get full version for Free

Get full version now!
To learn and play this song
in Tab Pro, start free trial
Start free trial

or get $10 off Welcome Bonus

Get welcome bonus
Get access to Tab Pro version of “Capillarian Crest”!
Tab Pro is a premium guitar tab service, available on PC, Mac, iOS and Android
START FREE TRIAL
To download “Capillarian Crest” Guitar Pro tab click button below
Please note that you must have Guitar Pro software installed on your
computer in order to view this file.
comments
We did not receive enough feedback on this tab! Please rate:
report bad tab
1 2 3 4 5
2 comments total.
0 reply
biffsniff wrote on December 31 2011, 06:16 pm

here is the solo played correctly



^
S S S S S S S S S S
|----10-----------------|
|--8----8-0---8-0---8-0-|
|-----------9-----9-----|
|-----------------------|
|-----------------------|
|-----------------------|

^ ^ ^
S S S S S S S S S S S S S S S S S S S S S S S S S S S S S S
----10-------------------|----10-----------------|----10-------------------|
--8----8-0---8-0----10-0-|--8----8-0---8-0---8-0-|--8----8-0---8-0----10-0-|
-----------9-----11------|-----------9-----9-----|-----------9-----11------|
-------------------------|-----------------------|-------------------------|
-------------------------|-----------------------|-------------------------|
-------------------------|-----------------------|-------------------------|

^ ^
S S S S S S S S S S S S S S S S S S S S S S S S S S S S
----10-----------------|----10-------------------|----------3-0-----|
--8----8-0---8-0---8-0-|--8----8-0---8-0----10-0-|--0-4-5-0-----5-0-|
-----------9-----9-----|-----------9-----11------|------------------|
-----------------------|-------------------------|------------------|
-----------------------|-------------------------|------------------|
-----------------------|-------------------------|------------------|

S S S S S S S S S S S S S S S S S S S S S S S S S S S S S S S S
-------------6-----|----------3-0-----|-------------6-----|----------3-0-----|
-------0-4-0---4-5-|--0-4-5-0-----5-0-|-------0-4-0---4-5-|--0-4-5-0-----5-0-|
--4S-5-------------|------------------|--4S-5-------------|------------------|
-------------------|------------------|-------------------|------------------|
-------------------|------------------|-------------------|------------------|
-------------------|------------------|-------------------|------------------|

S S S S S S S S S S S S S S S S S S S S S S S S
-------------6-----|----------3-0-----|-------------6-----|
-------0-4-0---4-5-|--0-4-5-0-----5-0-|-------0-4-0---4-5-|
--4S-5-------------|------------------|--4S-5-------------|
-------------------|------------------|-------------------|
-------------------|------------------|-------------------|
-------------------|------------------|-------------------|

^ ^ ^
S S S S S S S S S S S S S S S S S S S S S S S S S S S S S S
----8-----------------|----8-----------------|----8-----------------|
--6---6-0---6-0---6-0-|--6---6-0---6-0---8-0-|--6---6-0---6-0---6-0-|
----------7-----7-----|----------7-----9-----|----------7-----7-----|
----------------------|----------------------|----------------------|
----------------------|----------------------|----------------------|
----------------------|----------------------|----------------------|

^ ^ ^
S S S S S S S S S S S S S S S S S S S S S S S S S S S S S S
----8-----------------|----8-----------------|----8-----------------|
--6---6-0---6-0---8-0-|--6---6-0---6-0---6-0-|--6---6-0---6-0---8-0-|
----------7-----9-----|----------7-----7-----|----------7-----9-----|
----------------------|----------------------|----------------------|
----------------------|----------------------|----------------------|
----------------------|----------------------|----------------------|

S S S S S S S S S S S S S S S S S S S S S S S S
------------10-0------|---------------13-------|------------10-0------|
--0-11-12-0------12-0-|--------0-11-0----11-12-|--0-11-12-0------12-0-|
----------------------|--11-12-----------------|----------------------|
----------------------|------------------------|----------------------|
----------------------|------------------------|----------------------|
----------------------|------------------------|----------------------|

S S S S S S S S S S S S S S S S S S S S S S S S
---------------13-------|------------10-0------|---------------13-------|
--------0-11-0----11-12-|--0-11-12-0------12-0-|--------0-11-0----11-12-|
--11-12-----------------|----------------------|--11-12-----------------|
------------------------|----------------------|------------------------|
------------------------|----------------------|------------------------|
------------------------|----------------------|------------------------|

^
S S S S S S S S S S S S S S S S S S S S S S S S S S
------------10-0------|---------------13-------|----10-----------------|
--0-11-12-0------12-0-|--------0-11-0----11-12-|--8----8-0---8-0---8-0-|
----------------------|--11-12-----------------|-----------9-----9-----|
----------------------|------------------------|-----------------------|
----------------------|------------------------|------

0 reply
suppositron wrote on December 6 2014, 06:26 pm, edited at 06:36 pm

That is not correct. Check your ears. I posted this tab because everything else on this site was way incorrect and here you are trying to post yet another incorrect take on this song. Brent absolutely hammers on the 10th fret from an open D on the high D string, not the 8th fret on the A string.

I want to post or [tab]
guest
You may want to rate the tab now too:
select rating
Please do not post tabs as comments. Select "correction" instead!