Oops, an error
Loading. Please wait.

Colony Of Birchmen Bass Tab

version 1
version 1

Whole song

Interactive

4,350 views 3 this week
4 commentsread comments
1 2 3 4 5
please rate
add to favorites
launch autoscroll
font size
0
reset
guitar tuner
Autoscroll
slow
fast
+/-
esc
set tempo
stop
Help us to improve Ultimate-Guitar.com Take our survey!
×
Author
Difficulty
novice
Artist: Mastodon
Song: Colony of Birchmen

this tab was adapted from the guitar tab, Tabbed by: JëffAlivë - Much thanks to him!
 
Intro (DONT PLAY 1st TIME ROUND!)
F|-----------------------------------------------------------------|
C|-----------------------------------------------------------------|
G|-----10--10--9--------------------10-10-10-12-9----------5h7---8-|
D|0-0--------------7-0-7-7--8--7-0------------------5h7------------|
pm     .   .   .   .   . .  .  .
   
 Verse (Follow the vocals)
F|---------------------------------------------|
C|---------------------------------------------|
G|---11-9--11---11-9--11---11-9--11--4--5-5--6-|
D|-0----------0----------0---------------------|
pm . .  .  .  . .  .  .  . .  .  .   .    .  .

 Pre-Chorus ("Hunt for...")
F|--------------------------------------------------------------|
C|--------------------------------------------------------------|
G|-7--------------9---------------5--------------7--------------|
D|---000000000000----000000000000---000000000000---000000000000-|

 Chorus ("Run with death")
F|--------------------------------------------------------|
C|--------------------------------------------------------|
G|-7--------------9---------------10----------------------|
D|---000000000000----000000000000----000000000000---------|

PLAY INTRO 

 Intro to Bridge
F|------------------------------------------|
C|------------------------------------------|
G|------------------------------------------|
D|-8---8---7--7--7--10--8---8---7--7--7--10-|
pm .   .   .  .  .  .   .   .   .  .  .   .

 Bridge ("Gone away...")
 x4
F|---------------------|
C|---------------------|
G|---------------------|
D|-7-----7--------6--10|

PLAY CHORUS
PLAY INTRO
PLAY INTRO TO BRIDGE
PLAY BRIDGE

 Outro (Repeat till end - Very hard to hear once guitar solo kicks in)
F|---------------------------|
C|---------------------------|
G|-----------5h7p5-5h7p5-5h7-|
D|-0-0--0-0------------------|
pm   .    .
Suggest correction
What's this?
You can suggest a correction to this tab. Community and Mods will review your correction and vote to approve or reject it.
comments
We did not receive enough feedback on this tab! Please rate:
print report bad tab
1 2 3 4 5
4 comments total. Showing first comments.
0 reply
GreenPhantom 394 wrote on February 3 2007, 10:21 am

1st of all the chorus is wrong

and where is that little scale run leading up to the solo?

0 reply
Mcleody 451 wrote on February 4 2007, 08:12 am

1st if you have a problem with the chorus take it up with JëffAlivë not me k?

2nd im still tabbing the fill out dude - i'll add it in for you when im done

l8rz man \m/

0 reply
schleichi 744 wrote on May 31 2007, 06:10 am

-

guest
You may want to rate the tab now too:
select rating
Please do not post tabs as comments. Select "correction" instead!