Oops, an error
Loading. Please wait.

Colony Of Birchmen Bass Tab

version 3
version 3
3,529 views 1 this week
no commentswrite comment
1 2 3 4 5
x 3
add to favorites
launch autoscroll
font size
0
reset
guitar tuner
Autoscroll
slow
fast
+/-
esc
set tempo
stop
Help us to improve Ultimate-Guitar.com Take our survey!
×
Difficulty
Tuning
novice
D G C F A D
BAND-MASTODON
ALBUM-BLOOD MOUNTAIN
SONG-COLONY OF BIRCHMEN
GENRE-PROGRRESSIVE METAL
TUNING-D,G,C,F (DOWN 1 FULL STEP)
TABBED BY-ZINO MEGGAS

VERSE 1 (USE DISORTION OR FUZZ PEDDAL)
F------------------------------------I--------------|
C-----6~----------6~----------6~-----I--------------|
G-7~------8~--7~------8~--7~------8~-I-4~--5~--7-7--|  X2
D------------------------------------I--------------|

VERSE 2 (LATER IN VERSE)
F------------------------------------I--------------|
C------------------------------------I--------------|
G------------------------------------I-4~--5~--7-7--|  X1
D-0~--4~--1~--0~--4~--1~--0~--4~--1~-I--------------|

PRE CHORUS
F------------------------|
C------------------------|
G------9~---5~--7~-------|  X1
D-0~-----------------0~--|

CHORUS
F-------------------------|
C-------------------------|
G------------------7-5-7--|  X2
D-0~---2~---3~-5~---------|

AFTER CHORUS(AFTER SECOND CHORUS)
F----------------------------------------------------------|
C----------------------------------------------------------|
G----10---10-9----4-5-7-5-4-------------------5-5-5-7-7-7--|  X2
D-0~----0------0~-----------0~-3-3-3-5-2~--0~--------------|

BRIDGE 1(TURN OFF THE PEDDEL)
F------------------------------------|
C------------------------------------|
G-3-3-3-3-3-3-2-2-2-2-2-3-3-3-5-5-5--| X1
D------------------------------------|

BRIDGE 2 (OCTAVES)
F-----5---4---4-----5---7--|
C---5-------------5--------|
G-3-----2---2---3-----5----| X1
D--------------------------|

BRIDGE 3 (TURN ON PEDDEL)
F------------------|
C------------------|
G-3~---2~---3~-5~--| X4
D------------------|

PRE SOLO
F-------------------------12-10-9--------------------------|
C---------------------------------12-10-9------------------|
G-----------------------------------------12-10-9----------|  X1
D-0~----0~----0~----0~----------------------------12-10-9--|

SOLO
F------------------------|
C------------------------|
G---5-5---5-5---8P7-5H7--|  X8
D-0-----0-----0----------|

OUTRO
F-----
C-----
G-7~--  (HOLD TO FADE IT OUT)
D-----

SONG IN ORDER

VERSE 1
VERSE 2
PRE CHORUS
CHORUS
VERSE 1
VERSE 2
PRE CHOURUS
CHORUS
AFTER CHORUS
BRIDGE 1
BRIDGE 2
BRIDGE 3
PRE CHORUS
CHORUS
AFTER CHORUS
BRIDGE 1
BRIDGE 2
BRIDGE 3
PRE SOLO
SOLO


I HOPE THIS TAB WORKS!!!
MASTODON ROCKS!!!!
Suggest correction
Give kudos to tab author, rate the tab!
1 2 3 4 5
comments
print report bad tab
guest
You may want to rate the tab now too:
select rating
Wanna post a correction for this tab? Suggest correction