Oops, an error
Loading. Please wait.

Colony Of Birchmen Tab

version 3
version 3

Whole song

Interactive

6,203 views 3 this week
5 commentsread comments
1 2 3 4 5
accurate
x 7
add to favorites
launch autoscroll
font size
0
reset
how to read this tab
guitar tuner
Autoscroll
slow
fast
+/-
esc
set tempo
stop
Help us to improve Ultimate-Guitar.com Take our survey!
×
Difficulty
novice
Tabbed by: JëffAlivë
Tuning: DGCFAD

 Intro
D|-----------------------------------------------------------------|
A|------------------------------------------------------0------0---|
F|-----12--12--11-------------------12-12-12-14-11------0------0---|
C|-----------------9---9-9-10--9------------------------0------0---|
G|-----10--10--9--------------------10-10-10-12-9----------5h7---8-|
D|0-0--------------7-0-7-7--8--7-0------------------5h7------------|
pm     .   .   .   .   . .  .  .
   
 Verse (Follow the vocals)
D|---------------------------------------------|
A|---------------------------------------------|
F|---------------------------------------------|
C|---13-11-13---13-11-13---13-11-13--6--7-7--8-|
G|---11-9--11---11-9--11---11-9--11--4--5-5--6-|
D|-0----------0----------0---------------------|
pm . .  .  .  . .  .  .  . .  .  .   .    .  .

 Pre-Chorus ("Hunt for...")
D|--------------------------------------------------------------|
A|--------------------------------------------------------------|
F|-9--------------11--------------7--------------9--------------|
C|--------------------------------------------------------------|
G|-7--------------9---------------5--------------7--------------|
D|---000000000000----000000000000---000000000000---000000000000-|

 Chorus ("Run with death")
D|--------------------------------------------------------|
A|--------------------------------------------------------|
F|-9--------------11--------------12----------------------|
C|--------------------------------------------------------|
G|-7--------------9---------------10----------------------|
D|---000000000000----000000000000----000000000000---------|

PLAY INTRO 

 Intro to Bridge
D|------------------------------------------|
A|------------------------------------------|
F|------------------------------------------|
C|-10--10--9--9--9--12--10--10--9--9--9--12-|
G|-10--10--9--9--9--12--10--10--9--9--9--12-|
D|-8---8---7--7--7--10--8---8---7--7--7--10-|
pm .   .   .  .  .  .   .   .   .  .  .   .

 Bridge ("Gone away...")
 x4
D|-------------------|
A|-------------------|
F|-------------------|
C|-10----9--------12-|
G|-10----9--------12-|
D|-8-----7--------10-|

PLAY CHORUS
PLAY INTRO
PLAY INTRO TO BRIDGE
PLAY BRIDGE

 Outro (Repeat till end)
D|---------------------------|
A|---------------------------|
F|---------------------------|
C|---------------------------|
G|-2-2--2-2--5h7p5-5h7p5-5h7-|
D|-0-0--0-0------------------|
pm   .    .
Suggest correction
What's this?
You can suggest a correction to this tab. Community and Mods will review your correction and vote to approve or reject it.
comments
print report bad tab
5 comments total. Showing first comments.
0 reply
Maggot-Overdose 36 wrote on November 29 2006, 12:38 pm

I Love You.

0 reply
BottleOfSmoke 337 wrote on November 29 2006, 11:07 pm

Finally a decent version, thanks man!

0 reply
Aenima42 297 wrote on December 3 2006, 10:40 am

pretty good

guest
You may want to rate the tab now too:
select rating
Please do not post tabs as comments. Select "correction" instead!