Oops, an error
Loading. Please wait.

Colony Of Birchmen Tab

version 4
version 4
10,861 views 6 this week
no commentswrite comment
1 2 3 4 5
x 5
add to favorites
launch autoscroll
font size
0
reset
how to read this tab
guitar tuner
Autoscroll
slow
fast
+/-
esc
set tempo
stop
Help us to improve Ultimate-Guitar.com Take our survey!
×
Author
Difficulty
intermediate
-----------------------------------------------------------------------------
                        Colony of Birchmen - Mastodon
-----------------------------------------------------------------------------
Tabbed by: DeathTribble
Email:

Tuning: DGCFAD

Intro
D|----------------------------------------------------------------------|
A|----------------------------------------------------------------------|
F|-------12---12\11---------4---4/5-----12-12-12\14-11----------------0-|
C|------------------------------------------------------------0-----0---|
G|-2-----10---10\9----2-----2---2/3---2-10-10-10\12-9-------0---3/5-----|
D|-0-0-0----0-------0-0-0-0---0-----0-0-----------------3h5-------------|   

Verse
D|-------------------------------------------------------|
A|-------------------------------------------------------|
F|-------------------------------------------------------|
C|--------9---6--9----------9---6--9----------9---6--9---|
G|-2-----11---8-11---7-----11---8-11---7-----11---8-11---|
D|-0-0-0----0------0-0-0-0----0------0-0-0-0----0------0-|

D|--------------------|
A|--------------------|
F|--------------------|
C|--------------------|
G|-11------9-----9--9-|
D|-9--9-9-10-10-11-11-|

Chorus
D|--------------------------------------------------------------------------|
A|--------------------------------------------------------------------------|
F|-9-----------------------------11-----------------------------7-----------|
C|--------------------------------------------------------------------------|
G|-7-----------------------------9------------------------------5-----------|
D|---0-0-0-0-0-0-0-0-0-0-0-0-0-0----0-0-0-0-0-0-0-0-0-0-0-0-0-0---0-0-0-0-0-|

D|-------------------------------------------------|
A|-------------------------------------------------|
F|-------------------9-----------------------------|
C|-------------------------------------------------|
G|-------------------7-----------------------------|
D|-0-0-0-0-0-0-0-0-0---0-0-0-0-0-0-0-0-0-0-0-0-0-0-|

D|-------------------------------------------------------------------------|
A|-------------------------------------------------------------------------|
F|-------------------------------------------------------------------------|
C|-------------------------------------------------------------------------|
G|-------------------------------------------------------------------------|
D|-0-0-0-0-0-0-0-0-0-0-0-0-0-0-0-0-2-2-2-2-2-2-2-2-2-2-2-2-2-2-2-2-3-3-3-3-|

D|--------------------|
A|--------------------|
F|--------------------|
C|--------------5-4-5-|
G|--------------7-5-7-|
D|-3-3-3-3-3-3--------|

Bridge
D|-------------------------------------------------------------|
A|-------------------------------------------------------------|
F|-----------------------4/5/7\5\4-------12-12-12/14-11--------|
C|----------------------------------------------------------7~-|
G|-2-----5---5-4---2-----2/3/5\3\2-2-----10-10-10/12-9--5/7----|
D|-0-0-0-3-0-3-2-0-0-0-0-----------0-0-0-----------------------|

D|---------------------------------------------------------------------|
A|---------------------------------------------------------------------|
F|-----------------------4/5/7\5\4-------12-12-12/14-11--------------0-|
C|-----------------------------------------------------------0-----0---|
G|-2-----5---5-4---2-----2/3/5\3\2-2-----10-10-10/12-9-----0---3/5-----|
D|-0-0-0-3-0-3-2-0-0-0-0-----------0-0-0----------------3h5------------|

D|------------------------------------------------|
A|------------------------------------------------|
F|------------------------------------------------|
C|------------------------------------------------|
G|-7-------7-----6h7-----7-----7-------7----------|
D|-7h8-8-8-8-8-8-7---7-7-7-7-7-7h8-8-8-8h10-10-10-|

D|-----0-----------0-----------------0-|
A|-------0-----------0-----------------|
F|---------4-----------4-------4---4---|
C|---2-------2---2-------2---2---0-----|
G|-3-----------2-----------3-----------|
D|-------------------------------------|

Outro
D|-------------------------------------------------------|
A|-------------------------------------------------------|
F|-------------------------------------------------------|
C|-------------------------------------------------------|
G|-2---------7-7---------5-5-------------7p5-----5h7-----|
D|-0-0-0-0-0-0-0-0-0-0-0-0-0-0-0-0-0-0-0-----0-0-----0-0-|

| /  slide up
| \  slide down
| h  hammer-on
| p  pull-off
| ~  vibrato
| +  harmonic
| x  Mute note
=============================================================================
Suggest correction
comments
print report bad tab
guest
You may want to rate the tab now too:
select rating
Wanna post a correction for this tab? Suggest correction