Oops, an error
Loading. Please wait.

Crusher Destroyer Tab

version 3
version 3

Whole song

Interactive

8,299 views 12 this week
2 commentsread comments
1 2 3 4 5
x 4
add to favorites
launch autoscroll
font size
0
reset
how to read this tab
guitar tuner
Autoscroll
slow
fast
+/-
esc
set tempo
stop
Help us to improve Ultimate-Guitar.com Take our survey!
×
#----------------------------------PLEASE NOTE---------------------------------#
#This file is the author's own work and represents their interpretation of the #
#song. You may only use this file for private study, scholarship, or research. #
#------------------------------------------------------------------------------##

                                CRUSHER DESTROYER
                             As recorded by Mastodon
                         (From the 2002 Album REMISSION)

Words and Music by Mastodon
Transcribed by GuitarHero_JP

Guitar I (Brent Hinds) - DGCFAD
Guitar II (Bill Kelliher) - DGCFAD

Intro
Guitar II
|----|----------------|
|----|----------------|
|----|----------------|
|----|-4-----4--------|
|-9\-|-2-3---2-5--3---|
|-7\-|---1-----3--1---|

Guitar I
|----------------|----------------|----------------|----------------|
|----------------|----------------|----------------|----------------|
|----------------|----------------|-5*-------------|----------------|
|-4-----4--------|-4-----4--------|----3-----------|-4-----4--------|
|-2-3---2-5--3---|-2-3---2-5--3---|------2*--------|-2-3---2-5--3---|
|---1-----3--1---|---1-----3--1---|--------3*--1*--|---1-----3--1---|
|                                   *Harmonics
|Guitar II
|----------------|----------------|----------------|----------------|
|----------------|----------------|----------------|----------------|
|----------------|----------------|----------------|----------------|
|-4-----4--------|-4-----4--------|-4-----4--------|-4-----4--------|
|-2-3---2-5--3---|-2-3---2-5--3---|-2-3---2-5--3---|-2-3---2-5--3---|
|---1-----3--1---|---1-----3--1---|---1-----3--1---|---1-----3--1---|

|----------------|----------------|----------------|
|----------------|----------------|----------------|
|----------------|-5*-------------|----------------|
|-4-----4--------|----3-----------|-4-----4--------|
|-2-3---2-5--3---|------2*--------|-2-3---2-5--3---|
|---1-----3--1---|--------3*--1*--|---1-----3--1---|
|
|----------------|----------------|----------------|
|----------------|----------------|----------------|
|----------------|----------------|----------------|
|-4-----4--------|-4-----4--------|-4-----4--------|
|-2-3---2-5--3---|-2-3---2-5--3---|-2-3---2-5--3---|
|---1-----3--1---|---1-----3--1---|---1-----3--1---|

Chorus
Guitar I & II
|------0-----------|------0-----------|
|------0-----------|------0-----------|
|------------------|------------------|
|------------------|------------------|
|-3--------3---5---|-3--------3---5---|
|-1--------1---3---|-1--------1---3---| x2
  TP                 TP

Play main riff

Verse
|-0-----------------|-(0)-------------|
|-0-----------------|-(0)-------------|
|-2-----------------|-(2)------x\-----|
|-3-----------------|-(3)------x\-----|
|-3-----------------|-(3)------x\-----|
|-1-----------------|-(1)-------------|

|----------------|----------------|
|----------------|----------------|
|----------------|----------------|
|-4-----4--------|-4-----4--------|
|-2-3---2-5--3---|-2-3---2-5--3---|
|---1-----3--1---|---1-----3--1---| x2

|----------------|----------------|
|----------------|----------------|
|----------------|----------------|
|-4-----4--------|-4-----4--------|
|-2-3---2-5--3---|-2-3---2-5--3---|
|---1-----3--1---|---1-----3--1---|

Chorus

Interlude (All tremello picked)
Guitar I & II
|-----------|---------------|---------------|--------------|
|-----------|---------------|---------------|--------------|
|-----------|---------------|---------------|--------------|
|-9----13---|-10----7---10--|-9-----7---10--|-9-----13-----|
|-----------|---------------|---------------|--------------|
|-7----11---|-8-----5---8---|-7-----5---8---|-7-----11-----| x2

Guitar I
|-----------|---------------|---------------|--------------|
|-----------|---------------|---------------|--------------|
|-----------|---------------|---------------|--------------|
|-9----13---|-10----7---10--|-9-----7---10--|-9-----13-----|
|-----------|---------------|---------------|--------------|
|-7----11---|-8-----5---8---|-7-----5---8---|-7-----11-----|
|
|Guitar II
|-----------|---------------|---------------|--------------|
|-----------|---------------|---------------|--------------|
|-----------|---------------|---------------|--------------|
|-13---17---|-14----7---10--|-9-----7---10--|-9-----13-----|
|-----------|---------------|---------------|--------------|
|-11---15---|-12----5---8---|-7-----5---8---|-7-----11-----|

Solo
Guitar I & II
|------------------|-------------------|
|------------------|-------------------|
|-12-12-12-12-11-9-|-15-15-15-15-14-12-|
|------------------|-------------------|
|-10-10-10-10-9--7-|-13-13-13-13-12-10-|
|------------------|-------------------|

Guitar I
|--------------------|-------------------|
|--------------------|-------------------|
|---------4----------|----------4--------|
|---------4-----4----|----------4----4---|
|-2-2-2-2-2-----2----|-2-2--2-2-2----2---|
|--------------------|-------------------|
|
|Guitar II
|------7------7----7-|-7----7-7----7-7-7-|
|----7------7------7-|-7----7-7----7-7-7-|
|-9b-----9b-----9b---|---9b-----9b-------|
|--------------------|-------------------|
|--------------------|-------------------|
|--------------------|-------------------|

Guitar I & II
|------------------|-------------------|
|------------------|-------------------|
|-12-12-12-12-11-9-|-15-15-15-15-14-12-|
|------------------|-------------------|
|-10-10-10-10-9--7-|-13-13-13-13-12-10-|
|------------------|-------------------|

Guitar I
|------7------7------|-10----------------|
|----7---7-10--------|-------------------|
|-9b------------10-9-|----9-7-9b-7-------|
|--------------------|-------------9~----|
|--------------------|-------------------|
|--------------------|-------------------|
|
|Guitar II
|--------------------|-------------------|
|--------------------|-------------------|
|---------4----------|----------4--------|
|---------4-----4----|----------4----4---|
|-2-2-2-2-2-----2----|-2-2--2-2-2----2---|
|--------------------|-------------------|

Guitar I & II
|------------------|-------------------|
|------------------|-------------------|
|-12-12-12-12-11-9-|-15-15-15-15-14-12-|
|------------------|-------------------|
|-10-10-10-10-9--7-|-13-13-13-13-12-10-|
|------------------|-------------------|

Guitar I & II
|----------------|----------------|----------------|----------------|
|----------------|----------------|----------------|----------------|
|----------------|----------------|----------------|----------------|
|-4-----4--------|-4-----4--------|-4-----4--------|-4-----4--------|
|-2-3---2-5--3---|-2-3---2-5--3---|-2-3---2-5--3---|-2-3---2-5--3---|
|---1-----3--1---|---1-----3--1---|---1-----3--1---|---1-----3--1---|

Verse
Chorus

The end on
|----*|
|----*|
|----*|
|----*|
|-9\-*|
|-7\-*|

Please rate and comment... and enjoy!!! \m/
Suggest correction
comments
print report bad tab
2 comments total.
0 reply
VanCamp 32 Aug 10, 2009 10:20 AM

The harmonics sound good. Everything sounds good, BUT!

I haven't tried the solo yet, but I like it so far. I guess I'll just go buy the tab book and compare.

0 reply
Grungy_Guy 20 Jan 20, 2010 03:29 PM

Everything here is perfect! Great Job.

guest
You may want to rate the tab now too:
select rating
Wanna post a correction for this tab? Suggest correction