Oops, an error
Loading. Please wait.
We have an official Curl Of The Burl tab made by UG professional guitarists. Check out the tab »
×
12,554 views 36 this week
3 commentsread comments
1 2 3 4 5
x 5
add to favorites
×
Save as Personal and add changes to this tab that will be seen only by you. Learn more ›
×
You can save this tab as Personal to edit and correct it or add notes. All changes will be seen only by you. Learn more »
launch autoscroll
font size
0
reset
guitar tuner
backing track
0:00
0:00
edit
Autoscroll
slow
fast
+/-
esc
set tempo
stop
                               Curl of the Burl                                 


                                                                        MASTODON




                                     E   E   Q    E   E   Q     
F||-------|-------|-------|-------|----------------------------|
C||-------|-------|-------|-------|----------------------------|
G||-------|-------|-------|-------|----------------------------|
A||-------|-------|-------|-------|--0--10--12----0--12--10----|


   E   E   E   E  E   Q     E     E   E   Q    E   E   Q     
-------------------------------|----------------------------|
-------------------------------|----------------------------|
--------------10---------------|----------------------------|
--12--10--12---------10----12--|--0--10--12----0--12--10----|


   E   E   E   E  E   Q     E     E   E   Q    E   E   Q     
-------------------------------|----------------------------|
-------------------------------|----------------------------|
--------------10---------------|----------------------------|
--12--10--12---------10----12--|--0--10--12----0--12--10----|


   E   E   E   E  E   Q     E     E   E   Q    E   E   Q     
-------------------------------|----------------------------|
-------------------------------|----------------------------|
--------------10---------------|----------------------------|
--12--10--12---------10----12--|--0--10--12----0--12--10----|


   E   E   E   E  E   Q     E     E   E   Q    E   E   Q     
-------------------------------|----------------------------|
-------------------------------|----------------------------|
--------------10---------------|----------------------------|
--12--10--12---------10----12--|--0--10--12----0--12--10----|


   E   E   E   E  E   Q     E     E   E   Q    E   E   Q     
-------------------------------|----------------------------|
-------------------------------|----------------------------|
--------------10---------------|----------------------------|
--12--10--12---------10----12--|--0--10--12----0--12--10----|


   E   E   E   E  E   Q     E     E  E    E   H        E   
-------------------------------|--------------------------|
-------------------------------|--------------------------|
--------------10---------------|--------------------------|
--12--10--12---------10----12--|--0--3S--15--14--------L--|


  E  E    E   H        E     E  E    E   H        E   
--------------------------|--------------------------|
--------------------------|--------------------------|
--------------------------|--------------------------|
--0--3S--15--12--------L--|--0--3S--15--14--------L--|


  E  E    E   H        E     E  S  S  E  Q.     S  S S  S  
--------------------------|-------------------------------|
--------------------------|--------------------------0h-2-|
--------------------------|-----2p-0h-2---------2h-3------|
--0--3S--15--12--------L--|--0-----------0----------------|


  E  Q    Q    E  S  E.     E  S  S  E  Q.     S  S S  S  
-------------------------|-------------------------------|
--0----------------------|--------------------------0h-2-|
-----3----2----0--2S-5---|-----2p-0h-2---------2h-3------|
-------------------------|--0-----------0----------------|


  E  Q    Q    E  S  E.     E  S  S  E  Q.     S  S S  S  
-------------------------|-------------------------------|
--0----------------------|--------------------------0h-2-|
-----3----2----0--2S-5---|-----2p-0h-2---------2h-3------|
-------------------------|--0-----------0----------------|


  E  Q    Q    E  S  E.     E  S  S  E  Q.     S  S S  S  
-------------------------|-------------------------------|
--0----------------------|--------------------------0h-2-|
-----3----2----0--2S-5---|-----2p-0h-2---------2h-3------|
-------------------------|--0-----------0----------------|


  E  Q    Q    E  S  E.     E   E   Q    E   E   Q     
-------------------------|----------------------------|
--0----------------------|----------------------------|
-----3----2----0--2S-5---|----------------------------|
-------------------------|--0--10--12----0--12--10----|


   E   E   E   E  E   Q     E     E   E   Q    E   E   Q     
-------------------------------|----------------------------|
-------------------------------|----------------------------|
--------------10---------------|----------------------------|
--12--10--12---------10----12--|--0--10--12----0--12--10----|


   E   E   E   E  E   Q     E     E   E   Q    E   E   Q     
-------------------------------|----------------------------|
-------------------------------|----------------------------|
--------------10---------------|----------------------------|
--12--10--12---------10----12--|--0--10--12----0--12--10----|


   E   E   E   E  E   Q     E     E   E   Q    E   E   Q     
-------------------------------|----------------------------|
-------------------------------|----------------------------|
--------------10---------------|----------------------------|
--12--10--12---------10----12--|--0--10--12----0--12--10----|


   E   E   E   E  E   Q     E     E   E   Q    E   E   Q     
-------------------------------|----------------------------|
-------------------------------|----------------------------|
--------------10---------------|----------------------------|
--12--10--12---------10----12--|--0--10--12----0--12--10----|


   E   E   E   E  E   Q     E     E   E   Q    E   E   Q     
-------------------------------|----------------------------|
-------------------------------|----------------------------|
--------------10---------------|----------------------------|
--12--10--12---------10----12--|--0--10--12----0--12--10----|


   E   E   E   E  E   Q     E     E  E    E   H        E   
-------------------------------|--------------------------|
-------------------------------|--------------------------|
--------------10---------------|--------------------------|
--12--10--12---------10----12--|--0--3S--15--14--------L--|


  E  E    E   H        E     E  E    E   H        E   
--------------------------|--------------------------|
--------------------------|--------------------------|
--------------------------|--------------------------|
--0--3S--15--12--------L--|--0--3S--15--14--------L--|


  E  E    E   H        E     E  S  S  E  Q.     S  S S  S  
--------------------------|-------------------------------|
--------------------------|--------------------------0h-2-|
--------------------------|-----2p-0h-2---------2h-3------|
--0--3S--15--12--------L--|--0-----------0----------------|


  E  Q    Q    E  S  E.     E  S  S  E  Q.     S  S S  S  
-------------------------|-------------------------------|
--0----------------------|--------------------------0h-2-|
-----3----2----0--2S-5---|-----2p-0h-2---------2h-3------|
-------------------------|--0-----------0----------------|


  E  Q    Q    E  S  E.     E  S  S  E  Q.     S  S S  S  
-------------------------|-------------------------------|
--0----------------------|--------------------------0h-2-|
-----3----2----0--2S-5---|-----2p-0h-2---------2h-3------|
-------------------------|--0-----------0----------------|


  E  Q    Q    E  S  E.     E  S  S  E  Q.     S  S S  S  
-------------------------|-------------------------------|
--0----------------------|--------------------------0h-2-|
-----3----2----0--2S-5---|-----2p-0h-2---------2h-3------|
-------------------------|--0-----------0----------------|


  E  Q    Q    E  S  E.     H        H           W                 
-------------------------|--------------------|-------------------|
--0----------------------|--------------------|-------------------|
-----3----2----0--2S-5---|--------------------|-------------------|
-------------------------|--5--------7--------|--8----------------|


  H        H           W                   E  E  E   Q    Q    E   
--------------------|-------------------|-------------------------|
--------------------|-------------------|-------------------------|
--------------------|-------------------|--------5S--2----0----2--|
--5--------7--------|--8----------------|--0--0-------------------|


  E  E  E   Q    Q    E     H        H           W                 
-------------------------|--------------------|-------------------|
-------------------------|--------------------|-------------------|
--------5S--2----0----2--|--------------------|-------------------|
--0--0-------------------|--5--------7--------|--8----------------|


  H        H           W                   E  E  E   Q    Q    E   
--------------------|-------------------|-------------------------|
--------------------|-------------------|-------------------------|
--------------------|-------------------|--------5S--2----0----2--|
--5--------7--------|--8----------------|--0--0-------------------|


  E  E  E   Q    Q    E     E  E  E   Q    Q    E     E  E  E   Q    Q    E   
-------------------------|-------------------------|-------------------------|
-------------------------|-------------------------|-------------------------|
--------5S--2----0----2--|--------5S--2----0----2--|--------5S--2----0----2--|
--0--0-------------------|--0--0-------------------|--0--0-------------------|


              E  S  S  E  Q.     S  S S  S    E  Q    Q    E  S  E.   
-----|-----|-------------------------------|-------------------------|
-----|-----|--------------------------0h-2-|--0----------------------|
-----|-----|-----2p-0h-2---------2h-3------|-----3----2----0--2S-5---|
-----|-----|--0-----------0----------------|-------------------------|


  E  S  S  E  Q.     S  S S  S    E  Q    Q    E  S  E.   
-------------------------------|-------------------------|
--------------------------0h-2-|--0----------------------|
-----2p-0h-2---------2h-3------|-----3----2----0--2S-5---|
--0-----------0----------------|-------------------------|


  E  S  S  E  Q.     S  S S  S    E  Q    Q    E  S  E.   
-------------------------------|-------------------------|
--------------------------0h-2-|--0----------------------|
-----2p-0h-2---------2h-3------|-----3----2----0--2S-5---|
--0-----------0----------------|-------------------------|


  E  E    E   H        E     E  E    E   H        E   
--------------------------|--------------------------|
--------------------------|--------------------------|
--------------------------|--------------------------|
--0--3S--15--14--------L--|--0--3S--15--12--------L--|


  E  E    E   H        E     E  E    E   H        E   
--------------------------|--------------------------|
--------------------------|--------------------------|
--------------------------|--------------------------|
--0--3S--15--14--------L--|--0--3S--15--12--------L--|


  E  E    E   H        E     E  E    E   H        E   
--------------------------|--------------------------|
--------------------------|--------------------------|
--------------------------|--------------------------|
--0--3S--15--14--------L--|--0--3S--15--12--------L--|


  E  E    E   H        E     E  E    E   H        E   
--------------------------|--------------------------|
--------------------------|--------------------------|
--------------------------|--------------------------|
--0--3S--15--14--------L--|--0--3S--15--12--------L--|


  E  E    E   H        E     E  E    E   H        E   
--------------------------|--------------------------|
--------------------------|--------------------------|
--------------------------|--------------------------|
--0--3S--15--14--------L--|--0--3S--15--12--------L--|


  E  E    E   H        E     E  E    E   H        E   
--------------------------|--------------------------|
--------------------------|--------------------------|
--------------------------|--------------------------|
--0--3S--15--14--------L--|--0--3S--15--12--------L--|


  E  E    E   H        E     E  E    E   H        E   
--------------------------|--------------------------|
--------------------------|--------------------------|
--------------------------|--------------------------|
--0--3S--15--14--------L--|--0--3S--15--12--------L--|


  E  E    E   H        E     E  E    E   H        E     W                 
--------------------------|--------------------------|-------------------|
--------------------------|--------------------------|-------------------|
--------------------------|--------------------------|-------------------|
--0--3S--15--14--------L--|--0--3S--15--12--------L--|--L----------------|


  W                   W                   W                  
-------------------|-------------------|-------------------||
-------------------|-------------------|-------------------||
-------------------|-------------------|-------------------||
--L----------------|--L----------------|--L----------------||




Duration Legend
---------------
W - whole
H - half
Q - quarter
E - 8th
S - 16th
T - 32nd
X - 64th
. - note dotted
|-n-|  - n-tuplets

            
            
Suggest correction
Creating personal tab
Creating personal tab
You can edit any tab online and save it as your Personal.

You can edit, replace or remove any tab part or add personal notes – all changes will be seen only by you.

Personal tabs can be accessed anytime from any device, even offline.
Learn more »
comments
print report bad tab
3 comments total.
0 reply
Jernimo 95 Aug 05, 2014 12:46 PM

L is Let ring? and S would be Slide then I suppose? Also, at the start the tuning is AGCF even though above it mentions CGCF, I've never played Mastodon before but I know they play in many variations of the D tuning, so which is it? -apart from that, great tab though-

0 reply
bobbass4k 766 May 14, 2016 05:33 AM

It's AGCF. UG makes you pick a tuning but doesn't have AGCF on the list. They used it a lot in their earlier stuff and there's still a couple of songs on every album in it.

guest
You may want to rate the tab now too:
select rating
Wanna post a correction for this tab? Suggest correction