Oops, an error
Loading. Please wait.

Diamond In The Witch House tab

version 2
version 2

Whole song

Interactive

819 views 3 this week
no commentswrite comment
1 2 3 4 5
1 last vote to show rating
add to favorites
×
Save as Personal and add changes to this tab that will be seen only by you. Learn more ›
×
You can save this tab as Personal to edit and correct it or add notes. All changes will be seen only by you. Learn more »
launch autoscroll
font size
0
reset
how to read this tab
guitar tuner
edit
Autoscroll
slow
fast
+/-
esc
set tempo
stop
Author
-------------------------------------------------------------------------------
                       Diamond in the witch house - Mastodon
-------------------------------------------------------------------------------
Tabbed by: myskimasa

I labelled the riffs as intro, verse, interlude 1 & 2, pre-chorus and "chorus"
hoping to make it easier to learn the song part by part and follow the structure.
Song structure far below. Corrections are welcome. If you've got great ideas to
improve tab outfit and structure, don't hesitate to suggest.

Tuning: D standard into drop A

INTRO The very first time without [gtr3].
[gtr1]
d|-------------------------------------------0-----|
A|---------0-----------0-----------0-----0h4---4---|
F|-------4-----------4-----------4---4-5---------5-| x 2
C|-0h3-------3-0h3-------3-0h3---------------------|
G|-----2-----------2-----------2-------------------|
A|-------------------------------------------------|

[gtr2]
d|---------7-----------7-----------7---8-----------|
A|-------0---0-------0---0-------0---0-------------|
F|-7p4-4-------7p4-4-------7p4-4-------------------| x 2
C|-------------------------------------------------|
G|-------------------------------------------------|
A|-------------------------------------------------|

[gtr3] Harmonics, bend last note up with whammy bar.
d|-------------7-----------------------------------|
A|-12----------------------------7-----------------|
F|-------------------------5-----------7-----------|
C|-------------------------------------------------|
G|-------------------------------------------------|
A|-------------------------------------------------|
    +          +           +     +     +

d|-------------7-----------------------------------|
A|-12----------------------------7-----------------|
F|-------------------------5----------3b-----------|
C|-------------------------------------------------|
G|-------------------------------------------------|
A|-------------------------------------------------|
   +          +           +     +     +


VERSE
[gtr1+2]
d|-------------------------------------------|
A|-------------------------------------------|
F|-------------------------------------------| x 2
C|-4---4-----4---4-----4---4-----4-5-5-2-2---|
G|-2---2-----2---2-----2---2-----2-3-3-0-0---|
A|-------0-0-------0-0-------0-0-------------|

d|-------------------------------------------|
A|-------------------------------------------|
F|-------------------------------------------| x 2
C|-3---3-----4---4-----5---4-----3-5-5-2-2---|
G|-2---2-----2---2-----2---2-----2-3-3-0-0---|
A|-------0-0-------0-0-------0-0-------------|


BRIDGE 1
[gtr1+2]
d|--------------------------------------------------------------|
A|--------------------------------------------------------------|
F|--------------------------------------------------------------|
C|--------------------------------------------------------------|
G|-7-7-7-7-7-7-14-14-14-14-14-14-13-13-13-13-13-13-10-9-7-6-7-9-|
A|-5-5-5-5-5-5-12-12-12-12-12-12-11-11-11-11-11-11--8-7-5-4-5-7-|

d|-------------------------------------------------------------------|
A|-------------------------------------------------------------------|
F|-------------------------------------------------------------------|
C|-------------------------------------------------------------------|
G|-7-7-7-7-7-7-14-14-14-14-14-14-13-13-13-13-13-13-10-10-10-15-15-15-|
A|-5-5-5-5-5-5-12-12-12-12-12-12-11-11-11-11-11-11--8--8--8-13-13-13-|

BRIDGE 2
[gtr1]
d|--------------------------------------------------------------|
A|--------------------------------------------------------------|
F|--------------------------------------------------------------|
C|--------------------------------------------------------------|
G|-7-7-7-7-7-7-14-14-14-14-14-14-13-13-13-13-13-13-10-9-7-6-7-9-|
A|-5-5-5-5-5-5-12-12-12-12-12-12-11-11-11-11-11-11--8-7-5-4-5-7-|

d|-------------------------------------------------------------------|
A|-------------------------------------------------------------------|
F|-------------------------------------------------------------------|
C|-------------------------------------------------------------------|
G|-7-7-7-7-7-7-14-14-14-14-14-14-13-13-13-13-13-13-10-10-10-15-15-15-|
A|-5-5-5-5-5-5-12-12-12-12-12-12-11-11-11-11-11-11--8--8--8-13-13-13-|

[gtr2]
d|-------0--------------0----------------0----------------------|
A|-------0--------------0----------------0----------------------|
F|--------------------------------------------------------------|
C|-9-9-9---9-9-16-16-16---16-16-15-15-15---15-15-12-11-9-8-9-11-|
G|-7-7-7---7-7-14-14-14---14-14-13-13-13---13-13-10--9-7-6-7--9-|
A|--------------------------------------------------------------|

d|-------0--------------0----------------0-------------0-------0-|
A|-------0--------------0----------------0-------------0-------0-|
F|---------------------------------------------------------------|
C|-9-9-9---9-9-16-16-16---16-16-15-15-15---15-15-12-12---17-17---|
G|-7-7-7---7-7-14-14-14---14-14-13-13-13---13-13-10-10---15-15---|
A|---------------------------------------------------------------|

PRE-CHORUS
[gtr1]
d|-----------------------------------------7---------------------7-----------------|
A|---------------------------------------------8---7-8-7-------------8---7-8-7-----|
F|-5-----5-----5-----5-----5-5---5---5-8-----------------4/8-------------------4/8-| x2
C|-4-----4-----4-----4-----5-5---5---5-8-------------------------------------------|
G|-2---2-2---2-2---2-2---2-3-0---0---3-6-------------------------------------------|
A|---------------------------------------------------------------------------------|

d|-7-------------------------7-----------------------|
A|-------8-------7-8-7-------------8-------7-8-7-----|
F|---------------------4/8-----------------------4/8-|
C|---------------------------------------------------|
G|---------------------------------------------------|
A|---------------------------------------------------|

[gtr2]
d|---------------------------------------------------------------------------------|
A|---------------------------------------------------------------------------------|
F|-5-----5-----5-----5-----5-5---5---5-8---4-------------------4-------------------| x2
C|-4-----4-----4-----4-----5-5---5---5-8-------5---4-5-4-----------5---4-5-4-------|
G|-2---2-2---2-2---2-2---2-3-0---0---3-6-----------------2/6-------------------2/6-|
A|---------------------------------------------------------------------------------|


d|----------------------------------------------------|
A|----------------------------------------------------|
F|----------------------------------------------------|
C|----------------------------------------------------|
G|----------------------------------------------------|
A|-12----8-------7-8-7-0-/4---12----8-------7-8-7-0/4-|


"CHORUS"
[gtr1+2]
d|-------------------------------------------------|
A|-------------------------------------------------|
F|-------------------------------------------------|
C|-------------------------------------------------|
G|-3-3-3-3-3-3-3-3-3-3-3-3-3-3-3-3-3-3-6-6-6-6-6-6-|
A|-1-1-1-1-1-1-1-1-1-1-1-1-1-1-1-1-1-1-4-4-4-4-4-4-|

d|-------------------------------------------------|
A|-------------------------------------------------|
F|-------------------------------------------------|
C|-------------------------------------------------|
G|-2-2-2-2-2-2-2-2-2-2-2-2-2-2-2-2-2-2-5-5-5-5-5-5-|
A|-0-0-0-0-0-0-0-0-0-0-0-0-0-0-0-0-0-0-3-3-3-3-3-3-|


INTERLUDE 1
[gtr1]
d|-------------------------------------------------------------------|
A|-------------------------------------------------------------------|
F|-------------------------------------------------------------------|
C|-------------------------------------------------------------------|
G|-7-7-7-7-7-7-7-7-7-7-7-7-7-7-7-7-7-7-10-10-10-10-10-10-6-6-6-6-6-6-|
A|-5-5-5-5-5-5-5-5-5-5-5-5-5-5-5-5-5-5--8--8--8--8--8--8-4-4-4-4-4-4-|

d|-------------------------------------------|
A|-------------------------------------------|
F|-------------------------------------------|
C|-------------------------------------------|
G|-2-2-2-2-2-2-13-13-13-13-13-13-3-3-3-5-5-5-|
A|-0-0-0-0-0-0-11-11-11-11-11-11-1-1-1-3-3-3-|

[gtr2]
d|-------------------------------------------------------------------|
A|-------------------------------------------------------------------|
F|-9-9-9-9-9-9-11-11-11-11-11-11-12-12-12-12-12-12-17-17-17-17-17-17-|
C|-x-x-x-x-x-x--x--x--x--x--x--x--x--x--x--x--x--x--x--x--x--x--x--x-|
G|-7-7-7-7-7-7--9--9--9--9--9--9-10-10-10-10-10-10-15-15-15-15-15-15-|
A|-------------------------------------------------------------------|

d|----------------------------------------------------------------|
A|----------------------------------------------------------------|
F|-16-16-16-16-16-16-4-4-4-4-4-4-15-15-15-15-15-15-5-5-5-12-12-12-|
C|--x--x--x--x--x--x-x-x-x-x-x-x--x--x--x--x--x--x-x-x-x--x--x--x-|
G|-14-14-14-14-14-14-2-2-2-2-2-2-13-13-13-13-13-13-3-3-3-10-10-10-|
A|----------------------------------------------------------------|

[gtr3]
d|------------------------------------------------------------------|
A|------------------------------------------------------------------|
F|------------------------------------------------------------------|
C|------------------------------------------------10-10-10-10-10-10-|
G|-10-10-10-10-10-9-7-7-7-7-7-9-10-10-10-10-10-10-------------------|
A|------------------------------------------------------------------|

d|-------------------------------------------------------|----|
A|-------------------------------------------------------|----|
F|-------------------------------------------------------|----|
C|-9-9-9-9-9-9-------------8-8-8-8-8-8-------------------|----|
G|-------------6-6-6-6-6-6-------------10-10-10-12-12-12-|-10-|
A|-------------------------------------------------------|----|


INTERLUDE 2
[gtr1]
d|-------------------------------------------------------------------------|
A|-------------------------------------------------------------------------|
F|-------------------------------------------------------------------------|
C|-------------------------------------------------------------------------|
G|-10-10-10-10-10-10-10-10-10-10-10-10-10-10-10-10-10-10-13-13-13-13-13-13-|
A|--8--8--8--8--8--8--8--8--8--8--8--8--8--8--8--8--8--8-11-11-11-11-11-11-|

d|-------------------------------------------------------|
A|-------------------------------------------------------|
F|-------------------------------------------------------|
C|-------------------------------------------------------|
G|-9-9-9-9-9-9-2-2-2-2-2-2-13-13-13-13-13-13-3-3-3-5-5-5-|
A|-7-7-7-7-7-7-0-0-0-0-0-0-11-11-11-11-11-11-1-1-1-3-3-3-|

[gtr2]
d|-------------------------------------------------------------------------|
A|-------------------------------------------------------------------------|
F|-12-12-12-12-12-12-14-14-14-14-14-14-16-16-16-16-16-16-19-19-19-19-19-19-|
C|--x--x--x--x--x--x--x--x--x--x--x--x--x--x--x--x--x--x--x--x--x--x--x--x-|
G|-10-10-10-10-10-10-12-12-12-12-12-12-14-14-14-14-14-14-17-17-17-17-17-17-|
A|-------------------------------------------------------------------------|

d|-------------------------------------------------------------|
A|-------------------------------------------------------------|
F|-18-18-18-18-18-18-4-4-4-4-4-4-15-15-15-15-15-15-5-5-5-7-7-7-|
C|--x--x--x--x--x--x-x-x-x-x-x-x--x--x--x--x--x--x-x-x-x-x-x-x-|
G|-16-16-16-16-16-16-2-2-2-2-2-2-13-13-13-13-13-13-3-3-3-5-5-5-|
A|-------------------------------------------------------------|


SONG STRUCTURE

INTRO x 5
VERSE
INTRO x 2
VERSE
BRIDGE 1 + 2
PRE-CHORUS
VERSE
BRIDGE 2 x 2
PRE-CHORUS
INTRO x 2
"CHORUS" x 6
INTERLUDE 1 x 2
INTERLUDE 2 x 2
"CHORUS" x 9?
        First 5 times with intro harmonics. Then something else. Lots of guitar tracks.


************************************

| /   slide up
| \   slide down
| h   hammer-on
| p   pull-off
| ~   vibrato
| +   harmonic
| x   Mute note
| b   Bend
| pb  Pre-bend
| br  Bend release
| pbr Pre-bend release
| brb Bend release bend

************************************


            
            
Suggest correction
Creating personal tab
Creating personal tab
You can edit any tab online and save it as your Personal.

You can edit, replace or remove any tab part or add personal notes – all changes will be seen only by you.

Personal tabs can be accessed anytime from any device, even offline.
Learn more »
Give kudos to tab author, rate the tab!
1 2 3 4 5
comments
print report bad tab
guest
You may want to rate the tab now too:
select rating
Wanna post a correction for this tab? Suggest correction