Oops, an error
Loading. Please wait.

Ghost Of Karelia tab

version 2
version 2

Whole song

Interactive

14,967 views 15 this week
1 commentread comment
1 2 3 4 5
x 5
add to favorites
×
Save as Personal and add changes to this tab that will be seen only by you. Learn more ›
×
You can save this tab as Personal to edit and correct it or add notes. All changes will be seen only by you. Learn more »
launch autoscroll
font size
0
reset
how to read this tab
guitar tuner
edit
Autoscroll
slow
fast
+/-
esc
set tempo
stop
#----------------------------------PLEASE NOTE---------------------------------#
#This file is the author's own work and represents their interpretation of the #
#song. You may only use this file for private study, scholarship, or research. #
#------------------------------------------------------------------------------##

                                GHOST OF KARELIA
                             As recorded by Mastodon
                      (From the 2009 Album CRACK THE SKYE)

Words & Music by Mastodon

Guitar I - Brent Hinds CGCFAD
Guitar II - Bill Kelliher CGCFAD

Intro
Guitar I & II
|-10--10/13\10/13-|-8--8/10--10-|-5---6---8-|-3--3/5\3/5-|-0--0-1--1-|
|-----------------|-------------|-----------|------------|-----------|
|-----------------|-------------|-----------|------------|-----------|
|-----------------|-------------|-----------|------------|-----------|
|-----------------|-------------|-----------|------------|-----------|
|-----------------|-------------|-----------|------------|-----------|

|-1-3-3--|
|--------|
|--------|
|--------|
|--------|
|--------|

|-10--10/13\10/13-|-8--8/10--10-|-5--5-8---8-|-8-5---5-----|
|-----------------|-------------|------------|-----8---8-5-|
|-----------------|-------------|------------|-------------|
|-----------------|-------------|------------|-------------|
|-----------------|-------------|------------|-------------|
|-----------------|-------------|------------|-------------|

Main Riff
Guitar I
|--------------|-----------|--------------|-----------------|
|--------------|-----------|--------------|-----------------|
|--------------|-----------|--------------|-----------------|
|-10-0-0-7-0-0-|-7/10-10\7-|-10-0-0-7-0-0-|-7/10-10\7-------|
|--------------|-----------|--------------|-----------10/12-|
|--------------|-----------|--------------|-----------------|
|
|Guitar II
|--------------|-----------|--------------|-----------------|
|--------------|-----------|--------------|-----------------|
|--------------|-7/10-10\7-|--------------|-7/10-10\7-------|
|-10-0-0-7-0-0-|-----------|-10-0-0-7-0-0-|-----------10/12-|
|--------------|-----------|--------------|-----------------|
|--------------|-----------|--------------|-----------------|

|--------------|-----------|------------------|
|--------------|-----------|------------------|
|--------------|-----------|------------------|
|-10-0-0-7-0-0-|-7/10-10\7-|-10/12\10---------|
|--------------|-----------|----------12------|
|--------------|-----------|-------------10-9-|
|
|--------------|-----------|------------------|
|--------------|-----------|------------------|
|-10-0-0-7-0-0-|-7/10-10\7-|-10/12\10---------|
|--------------|-----------|----------12------|
|--------------|-----------|--------------8-7-|
|--------------|-----------|------------------| x2

Verse
Guitar I & II
|------------------|------------|------------------|------------|
|------------------|------------|------------------|------------|
|-------10-------9-|-------10\9-|-------10-------9-|-------9\10-|
|----12-------12---|----12------|----12-------12---|----12------|
|-13-------13------|-13---------|-13-------13------|-13---------|
|------------------|------------|------------------|------------|

|------------------|-----------------|------------|-------------|
|------------------|-----------------|------------|-------------|
|-------10-------9-|-------10\9----9\|=7---7\5----|-------------|
|----12-------12---|----12------10---|---8--------|-------------|
|-13-------13------|-13--------------|------------|---------3-5-|
|------------------|-----------------|------------|-3-5-6-5-----|
                                                    ^Not sure about this bit

Intro
Verse
Intro

|-------------|-------------|-------------|
|-------------|-------------|-------------|
|-7-5---5-----|-------------|-------------|
|-----7---7-5-|-5-3---3-----|-------------|
|-------------|-----5---5-3-|-5-3-0-------|
|-------------|-------------|-------3-5-6-|

Chorus
|-------------|------------|-------------|---------------|
|-------------|------------|-------------|---------------|
|-------------|-----9------|-------------|------10-------|
|-------------|---9---9----|-------------|---10----10----|
|---0-5-3-5-7-|-7----------|---0-5-3-5-7-|-8-------------|
|-0-----------|------------|-0-----------|---------------|

                           |1.
|-------------|------------|-----------|------------|
|-------------|------------|-----------|------------|
|-------------|-----9------|-10--9--7--|-7-5-7-9-7--|
|-------------|---9---9----|-----------|------------|
|---0-5-3-5-7-|-7----------|-8---7--5--|-5-3-5-7-5--|
|-0-----------|------------|-----------|------------|

|2.
|-----------|----------|
|-----------|----------|
|-10--9--7--|-5--7--9--|
|-----------|----------|
|-8---7--5--|-3--5--7--|
|-----------|----------|

Chugging
|-----------------|-----------------|-----------------|-----------------|
|-----------------|-----------------|-----------------|-----------------|
|-----------------|-----------------|-----------------|-----------------|
|-7---------------|-7-------7-------|-6---------------|-6-------6-------|
|-5-0-0-0-0-0-0-0-|-5-0-0-0-5-0-0-0-|-4-0-0-0-0-0-0-0-|-4-0-0-0-4-0-0-0-|
|---0-0-0-0-0-0-0-|---0-0-0---0-0-0-|---0-0-0-0-0-0-0-|---0-0-0---0-0-0-|
    PM------------|   PM----| PM----|   PM------------|   PM----| PM----| x2

Guitar I
|-------------|-------------|-------------|-------------|
|-------------|-------------|-------------|-------------|
|-------------|-------------|----------3--|----------3--|
|-------5--7--|-------5--7--|-------2-----|-------2-----|
|----5--------|----5--------|-4--4--------|-4--4--------|
|-0-----------|-0-----------|-------------|-------------|
|
|Guitar II
|-------------|-------------|-------------|-------------|
|-------------|-------------|-------------|-------------|
|-------------|-------------|-------------|-------------|
|-------------|-------------|-6-----6-----|-6-----6-----|
|-0-----0-----|-0-----0-----|-4-----4-----|-4-----4-----|
|-0-----0-----|-0-----0-----|-------------|-------------|

|-------------|-------------|-------------|-------------|
|-------------|-------------|-------------|-------------|
|-------------|-------------|----------3--|----------3--|
|-------5--7--|-------5--7--|-------2-----|-------2-----|
|----5--------|----5--------|-4--4--------|-4--4--------|
|-0-----------|-0-----------|-------------|-------------|
|
|-------------|-------------|-------------|-------------|
|-------------|-------------|-------------|-------------|
|-------------|-------------|-------------|-------------|
|-------------|-------------|-6-----6-----|-6-----6-----|
|-0-----0-----|-0-----0-----|-4-----4-----|-4-----4-----|
|-0-----0-----|-0-----0-----|-------------|-------------|

Riff 1
Guitar I & II
|-----------------|-----------------|-----------------|----------------|
|-----------------|-----------------|-----------------|----------------|
|-----------------|-----------------|-----------------|----------------|
|---------13---10-|---------12---9--|---------10---9--|-9---7---9---7--|
|---------11---8--|---------10---7--|---------8----7--|-7---5---7---5--|
|-0-15\-0----0----|-0-15\-0----0----|-0-15\-0----0----|---0---0---0----| x2
 PM     PM  PM     PM     PM   PM     PM    PM   PM       PM  PM  PM

Riff 2
Guitar I
   TP       TP         TP  TP  TP   TP         TP        TP  TP  TP
|-/10-------9----|-(9)-6---5---6--|-9----------6---|-(6)-5---6---11---|
|----------------|----------------|----------------|------------------|
|----------------|----------------|----------------|------------------|
|----------------|----------------|----------------|------------------|
|----------------|----------------|----------------|------------------|
|----------------|----------------|----------------|------------------|
|
|Guitar II
|----------------|----------------|----------------|------------------|
|----------------|----------------|----------------|------------------|
|----------------|----------------|----------------|------------------|
|----------------|----------------|----------------|------------------|
|-7---------6----|-(6)-3---2---3--|-6----------3---|-(3)-2---3---8----|
|-7---------6----|-(6)-3---2---3--|-6----------3---|-(3)-2---3---8----|

Riff 1

Riff 3
Guitar I & II
|----------|----------|----------|
|----------|----------|----------|
|----------|----------|----------|
|-----10---|----------|----------|
|-0---8----|-7---8----|-5-5-7----|
|-0--------|-7---8----|-5-5-7----|

Guitar I
|-------------|-------------|---------|
|-------------|-------------|---------|
|-0-0-0-0-0-0-|-0-0-0-0-0-0-|-0-0-0-0-|
|-5-5-5-6-6-6-|-3-3-3-5-5-5-|-2-2-3-3-|
|-------------|-------------|---------|
|-------------|-------------|---------|

Chugging
Intro x2
Chorus
Main Riff
Verse

The end on:
Guitar I & II
|------------*|
|------------*|
|------------*|
|-0----------*|
|-0----------*|
|-0----------*|

Please rate/comment/correct or all :P thanx... Enjoy!

            
            
Suggest correction
Creating personal tab
Creating personal tab
You can edit any tab online and save it as your Personal.

You can edit, replace or remove any tab part or add personal notes – all changes will be seen only by you.

Personal tabs can be accessed anytime from any device, even offline.
Learn more »
comments
print report bad tab
1 comment total.
+2 reply
mark3777 20 Dec 18, 2010 12:42 PM

sounds pretty good to me

guest
You may want to rate the tab now too:
select rating
Wanna post a correction for this tab? Suggest correction