Oops, an error
Loading. Please wait.

Iron Tusk bass

version 1
version 1

Whole song

Interactive

7,326 views 9 this week
4 commentsread comments
1 2 3 4 5
x 6
add to favorites
×
Save as Personal and add changes to this tab that will be seen only by you. Learn more ›
×
You can save this tab as Personal to edit and correct it or add notes. All changes will be seen only by you. Learn more »
launch autoscroll
font size
0
reset
guitar tuner
backing track
0:00
0:00
edit
Autoscroll
slow
fast
+/-
esc
set tempo
stop
Author
Difficulty
Mastodon - Iron Tusk

tuning (low to high) - A G C F

pause for drum fill

Riff 1 x4
    e e e e  e  e  e e e e  e  e  e  e  e   e   e  e  q  s s q.
|----------------------------------------------------------------|
|12--------------------------------------------------------------|
|8---------------------------------------------------------------|
|---0-0-0-12-12-12-0-0-0-12-12-10-13-13-10-(10)-10-10-8--108-7---|

Riff 2 x2
|-------------------------------------------------|
|-------------------------------------------------|
|---------------------2-0-2-----------5-5-5-4-4-4-|
|-0-0-0-0-0-0-0-0-0-0-------0-0-0-0-0-------------|

|--------------------------------------------------|
|--------------------------------------------------|
|---------------------2-0-2-4-4-4-5-5-5-8-8-8-7-8--|
|-0-0-0-0-0-0-0-0-0-0------------------------------|

Riff 3 x1
|------------------------------------------------------------------------------|
|------------------------------------------------------------------------------|
|-4-4-4-5-5-5-8-8-8-12-10-12-4-4-4-5-5-5-8-8-8-7-8--4-4-4-5-5-5-8-8-8-12-10-12-|
|------------------------------------------------------------------------------|

Riff 1 x4

Riff 2 x2

Riff 3 x1

Riff 4 x2
|---------------------------------------------------------------------------------|
|---------------------------------------------------------------------------------|
|---------------------------------------------------------------------------------|
|-0-2-0-3-2-0-0-2-0-3-2-0-6----0-2-0-6----0-2-0-3-2-0-0-2-0-3-2-0-8----0-2-0-8----|

Riff 5 x2
|----------------------------------------------------------------|
|----------------------------------------------------------------|
|-0----8--------8--5--5653-0----8--------8--5--5653--5--2--2321--|
|----------------------------------------------------------------|

Riff 4 x2

Riff 6 x4
|--------------------------------------------------------------------|
|--------------------------------------------------------------------|
|----------------------888---888---------------------101010---101010-|
|-121212000121212000000---000---121212000121212000000------000-------|

Riff 1 x4

End With
|----------------------------|
|----------------------------|
|---------------------2-0-2--|
|-0-0-0-0-0-0-0-0-0-0--------|

            
            
Suggest correction
Creating personal tab
Creating personal tab
You can edit any tab online and save it as your Personal.

You can edit, replace or remove any tab part or add personal notes – all changes will be seen only by you.

Personal tabs can be accessed anytime from any device, even offline.
Learn more »
comments
print report bad tab
4 comments total. Showing first comments.
0 reply
Aenima42 155 Nov 04, 2006 06:53 PM

good

-1 reply
metallicamadmik 72 Jan 19, 2011 03:04 PM

does he really tune it down to drop A or does he just play with a 5 string with all the strings tuned down a full step?

+2 reply
tom the ginger 31 Jun 17, 2012 10:51 AM

I don't see why this only has 3 stars. It's much better than the other one that's on here, because the other one is far too simplified and in completely the wrong tuning. This is excellent.

guest
You may want to rate the tab now too:
select rating
Wanna post a correction for this tab? Suggest correction