Oops, an error
Loading. Please wait.

Megalodon Bass Tab

version 1
version 1

Whole song

Interactive

2,665 views 1 this week
no commentswrite comment
1 2 3 4 5
please rate
add to favorites
launch autoscroll
font size
0
reset
guitar tuner
Tab Pro tools
  • play this tab
  • loop segment
  • change instrument
  • show fretboard
  • metronome
×
Best way to learn
"Megalodon"
Autoscroll
slow
fast
+/-
esc
set tempo
stop
Contributor
Difficulty
intermediate
Mastodon - Megalodon

tuning (low to high) - D C G F

Riff 1 x4
|---------------------------------|
|---------------------------------|
|---------------------------------|
|-4------8--------9------5--------|

Riff 2 x3
|--------------------------------|
|-------7h9---7h9---9h11---------|
|-9-7h9-----7-----9--------------|
|------------------------7h9-6h8-|

Fill 1 x1
|-----------------------------|
|-------7h9-------7-7---------|
|-9-7h9-----7h9--9----9-7-----|
|-------------------------9-7-|

Riff 2 x2

Fill 2 x1
|-6p4-4-4-4-4-2p0-0-0--0---0---0---0---0---0---0---0---0-|
|------------------------4---2---------------------------|
|--------------------------------3---2-------------------|
|----------------------------------------3---2---1---0---|

Riff 3 x2
|---------------------------------------------------------0---0---|
|-------------------------------------------------------0---6-----|
|-----6---6-----6---6-----6-----6---6-----6-----6---0h6---------6-|
|-0-0---0---0-0---0---0-0---0-0---0---0-0---0-0---0---------------|

|-----------------------------------------------------------------|
|---------------------------------------------------------6-------|
|-----6---6-----6---8-----6-----6---6-----6-----6---6-7-9---9-7-9-|
|-0-0---0---0-0---0---0-0---0-0---0---0-0---0-0---0---------------|

|-----------------------------------------------------------------|
|-----------------------------------------------------------------|
|-----6---6-----6---6-----6-----6---6-----6-----6---------4-6-----|
|-0-0---0---0-0---0---0-0---0-0---0---0-0---0-0---0-4-5-7-----5-7-|

Fill 3 x1
|-------------------------------------------------|
|-------------------------------------------------|
|-----6---6-----6---6-----6-----6---6-----6-----6-|
|-0-0---0---0-0---0---0-0---0-0---0---0-0---0-0---|

Rest for 7 seconds

Riff 4 x2
|-----------------------------------------------------------------------------|
|-----------------------------------------------------------------------------|
|-----------------------------------------------------------------------------|
|-12h13-0-12h13-0-0-0-0-0-0-0-0-0-0-0-12h13-0-12h13-0-12h13-0-12h13-0-16-0-13-|

|------------------------------------------------------------------------------|
|------------------------------------------------------------------------------|
|------------------------------------------------------------------------------|
|-12h13-0-12h13-12-12-12-12-12-12-12-12-12-12-12-12h13-0-12h13-0-12h13-0-12h13-|

|-----------------------------------------------------------------------------|
|-----------------------------------------------------------------------------|
|-------------------12h14-------------------------12h14---12h14---------------|
|-0-17-0-13-12h13-0-------0-0-0-0-0-0-0-0-0-0-0-0-------0-------0-0-0-0-0-0-0-|

|-----------------------------------------------------|
|-----------------------------------------------------|
|-----------12h14---12h14---12h14---12h14---12h14-----|
|-0-0-0-0-0-------0-------0-------0-------0-------0-0-|

Fill 4 x1
|------------------------|
|------------------------|
|-10---------------------|
|-------10-13-11----8-10-|

Riff 4 x2

Fill 3 x1

Riff 5 x2
|-------------------------------------------------------------------------------------|
|---------2-2-----4-4-------------2-2---------4-4-------------2-2-----4-4-------------|
|-------------------------------------------------------------------------------------|
|-0-0-2-2-----0-0-----2-2-0-0-2-2-----0-0-3-3-----2-2-0-0-2-2-----0-0-----2-2-0-0-2-2-|

|---------------------------------------------------------------------------------|
|-------------4-4---------2-2-----4-4-------------2-2---------4-4-------------2-2-|
|-5-5-----2-2---------------------------------------------------------------------|
|-----3-3---------0-0-2-2-----0-0-----2-2-0-0-2-2-----0-0-3-3-----2-2-0-0-2-2-----|

|-------------------------------------------------|
|-----4-4-----------------2-2-4-4-5-5-7-7-5-5-7-7-|
|---------------------4-4-------------------------|
|-0-0-----2-2-0-0-2-2-----------------------------|

Riff 6 x1
|----------------------------------------------------|
|-----2---4-------2-----4-------2---4-------------4--|
|-------------------------------------------5---2----|
|-0-2---0---2-0-2---0-3---2-0-2---0---2-0-2---3------|

|--------------------------------------------------------|
|-----2---4-------2-----4-------2---4---------2-4-5-7-5--|
|-------------------------------------------4------------|
|-0-2---0---2-0-2---0-3---2-0-2---0---2-0-2--------------|

Riff 7 x4
|-------------------------------------------------|
|---------------9h10p9-9-9h10p9p7-9-9-7-----------|
|----7h8p7-7----------------------------10--9-----|
|-0----------0---------------------------------10-|

Riff 5 x2

Riff 6 x1

Riff 8A x4
|--------------------|
|--------------------|
|----5-7----77777777-|
|-0------------------|

Riff 8B x4
|----7-9----99999999-|
|-0------------------|
|--------------------|
|--------------------|

End With
|-------------------------|
|-------------------------|
|------8----5--------7\---|
|-7--------------5-7------|
comments
We did not receive enough feedback on this tab! Please rate:
print report bad tab
1 2 3 4 5
I want to post or [tab]
guest
You may want to rate the tab now too:
select rating
Please do not post tabs as comments. Select "correction" instead!