Oops, an error
Loading. Please wait.

Oblivion Bass Tab

version 1
version 1
17,238 views 3 this week
2 commentsread comments
1 2 3 4 5
x 3
add to favorites
launch autoscroll
font size
0
reset
guitar tuner
Autoscroll
slow
fast
+/-
esc
set tempo
stop
Help us to improve Ultimate-Guitar.com Take our survey!
×
Tabbed By : The 6th String
e-mail: aidannemath@gmail.com

Tuning: Drop C

This is what I've got so far...

F|--8-------------------------8------------------|
C|----------0--------------------------0---------|
G|------6--------------------------6-------------|X2
C|--------------------------------------------0--|

F|---8--------------------8----------------------|
C|----------0--------------------0---------------|
G|-------6--------------------6------------------|X2
C|-------------5\7------------------5\7----------|


F|---8--------------------8----------------------|
C|----------0--------------------0---------------|
G|-------6-------5---7--------6------5---7-------|X3
C|-----------------0-------------------0---------|


F|---8----------------------------------------|
C|----------0---------------------------------|
G|-------6-----5---7----8---7---5---7---6-----|
C|---------------0----0---0---0---0---0-------|


F|---------10--------------10---------------|
C|------------------------------------------|
G|----/8-------5-7-5---/8------5-5-7--------|X2
C|------------------------------------------|

VERSE
F|----------------------------------------------------|
C|--------------1------------------------1------------|
G|--3-------3------------3---3-------3------------3---|
C|----1-1-1---1---1-1-1----1---1-1-1---1---1-1-1----1-|

F|-------------------------------------------------|
C|-------------4-----------------------------------|
G|-2-------2-----------2---2-------2---4-------2---|
C|---0-0-0---0---0-0-0---0---0-0-0---0---0-0-0---0-| repeat both

Pre-Verse

F|-----------------------------------------------------|
C|-----------------------------------------------------|
G|-10-----7-----10-----7-----10-----7-----10-----7-----|
C|----8-7---8-0----8-7---8-0----8-7---8-0----8-7---8-0-|

F|------------------------------------------------------------|
C|------------------------------------------------------------|
G|--8-----------8-----------8-----------8---------------------|
C|----8-7-5-7-8---8-7-5-7-8---8-7-5-7-8---8-7-5-7-8-----------| repeat both

now here is where it becomes unclear. Troy plays down at the 3rd and 7th for the chorus 
plays a different fill in between chords than the guitars do.

as of now, i cannot figure it out, so i will simply tab the guitar's way of playing the 
(for bass of course).

F|-------------------9-12-9-------------|
C|--------------9-10---------10---------|
G|-8-8-----8----------------------------|
C|-----x-x------------------------------|

F|-------------------------------|
C|-------------------------------|
G|-------------------7-5-5-7-----|
C|-7-7-x-x-7----7-8--------------|

F|-------------------9-12-9-------------|
C|--------------9-10---------10---------|
G|-8-8-----8----------------------------|
C|-----x-x------------------------------|

F|-------------------------------|
C|-------------------------------|
G|-------------------5-3-3-5-----|
C|-5-5-x-x-5----0-3--------------|

Verse

Chorus

Bridge

F|-------------------------------9h10----10----|
C|-----------12h13----13--------------12-------|
G|-----------------15--------------------------|
C|--0~---------------------0~------------------| X2

F|---------8--------8-------8---------8---|
C|----------------------------------------|
G|------6----6---6----6---6---6----6----6-|
C|--0----------0--------0--------0--------|

F|-------------------|
C|-------------------|
G|-------------------|
C|-8\10/8-8-8\10/8-8-|

F|---------8--------8-------8---------8---|
C|----------------------------------------|
G|------6----6---6----6---6---6----6----6-|
C|--0----------0--------0--------0--------|

F|-----------------------|
C|-----------------------|
G|-----------------------|
C|-8\10\12\14/12/10/8/7~-|

F|---------------------------------------------------------------------------------------|
C|---------------------------------------------------------------------------------------|
G|--5-5555-5-5555-5-5555-5-5555/15-1515151515-15-1515151515-15-1515151515-15-15151515----|
C|---------------------------------------------------------------------------------------|

and now this is another place i get stuck. Troy smacks the low C then slides up to the 
and hits a C on what appears to be the 15th fret, he does this a
few times but i am not sure of it nor the following riffs so i will not tab them, sorry.

Bridge II

F|----------------------------|
C|----------------------------|
G|----------------------------|
C|--8-7-8-10-8-10-12\--0-00-0-|

F|----------------------------------------------|
C|----------------------------------------------|
G|----------------------------------------------|
C|--8-7-8-10-8-10-12-10-12-14-12-10-12\--0-00-0-|

F|------------------------------|
C|------------------------------|
G|-------------------------8~---|
C|--8-7-8-10-8-10--0-0--0-------|

Chorus x2

not sure of this part but it sounds feasible.
F|------------------------------------------------------------|
C|------------------------------------------------------------|
G|---------8~--------7~-------5~-------7~-------5~--------8~--|
C|---0-0-0-----0-0-0----0-0-0----0-0-0----0-0-0-----0-0-0-----|
Suggest correction
Give kudos to tab author, rate the tab!
1 2 3 4 5
comments
print report bad tab
2 comments total.
0 reply
The 6th String 70 May 25, 2009 08:20 PM

SORRY! In the beginning the 5/7 is on the G, not the low C.

0 reply
PanteraFloods 52 Nov 07, 2009 02:25 PM

sorry this tab ain't great, but it will allow you to play the song

guest
You may want to rate the tab now too:
select rating
Wanna post a correction for this tab? Suggest correction