Oops, an error
Loading. Please wait.

Oblivion Tab

version 2
version 2
4,065 views 1 this week
no commentswrite comment
1 2 3 4 5
please rate
add to favorites
launch autoscroll
font size
0
reset
how to read this tab
guitar tuner
Autoscroll
slow
fast
+/-
esc
set tempo
stop
Help us to improve Ultimate-Guitar.com Take our survey!
×
Contributor
Difficulty
tomhine 137
advanced
-------------------------------------------------------------------------------
                             Oblivion (Solo) - Mastodon
-------------------------------------------------------------------------------
Tabbed by:tomhine
Email:thine@hotmial.co.uk

Tuning:Drop C (C-G-C-F-A-D)

e|---------------------------------------------------------------------------|
B|-8brb~--------pb8-8p6---8--8--------6h8p6-5h6p5--5-------------------------|
G|----------------------7-------------------------7--7p5--7------5h7--5h7----|
D|-------------------------------------------------------7--7----------------|
A|---------------------------------------------------------------------------|
E|---------------------------------------------------------------------------|

e|-------10-----------15h16h17-------------------------------------10---------|
B|-------------13~------------18h20p18\15--18--15p13h15p13-10h13p10-----------|
G|-7/12b---------------------------------17--17-------------------------------|
D|----------------------------------------------------------------------------|
A|----------------------------------------------------------------------------|
E|----------------------------------------------------------------------------|

e|---------------------------------------------------------------------------|
B|-10h13p10h13p10--13---10---------------------------------------------------|
G|---------------12---11--13-12-10---10h12p10--10----------------------------|
D|---------------------------------12------------12p10--12---10--------------|
A|----------------------------------------------------10---12----------------|
E|---------------------------------------------------------------------------|

e|----------------------------------------------------------------------------|
B|-----------------------15brb----15--12/15\12----12--12--12--12h15p12--------|
G|----------------------------------------------------------------------------|
D|----------------------------------------------------------------------------|
A|-12\5--7\4--4p3-------------------------------------------------------------|
E|----------------------------------------------------------------------------|

e|----------------------------------------------------------------------------|
B|----12----------------------------------------------------------------------|
G|-15----15--14--15p14-12---14--12--------------------------------------------|
D|------------------------14--14---14p12--------------------------------------|
A|----------------------------------------14p12------14\12--------------------|
E|----------------------------------------------------------------------------|

e|---------------------------------------------------------------------------|
B|---------------------------------------------------------------------------|
G|---------------------------------------------------------------------------|
D|---------------------------------------------------------------------------|
A|-12~----12~--------10h12p10h12/14--14---------12h14----12----10------------|
E|---------------------------------------------------------------------------|


e|--------------------------------10b----9b-----10b--12b--9b---------14b------|
B|-11b----10b----11b--13b--10b----13b----12b----13b--15b--12b--------16b------|
G|-13b----12b----13b--15b--12b------------------------------------------------|
D|----------------------------------------------------------------------------|
A|----------------------------------------------------------------------------|
E|----------------------------------------------------------------------------|

Few mistakes here and there but thats the general gist of it. Have fun!

Tom,


************************************

| /   slide up
| \   slide down
| h   hammer-on
| p   pull-off
| ~   vibrato
| +   harmonic
| x   Mute note
| b   Bend
| pb  Pre-bend
| br  Bend release
| pbr Pre-bend release
| brb Bend release bend

************************************
Suggest correction What's this?
You can suggest a correction to this tab. Community and Mods will review your correction and vote to approve or reject it.
comments
We did not receive enough feedback on this tab! Please rate:
print report bad tab
1 2 3 4 5
I want to post or [tab]
guest
You may want to rate the tab now too:
select rating
Please do not post tabs as comments. Select "correction" instead!