Oops, an error
Loading. Please wait.

Oblivion Bass Tab

version 2
version 2
23,484 views 57 this week
3 commentsread comments
1 2 3 4 5
excellent!
x 13
add to favorites
launch autoscroll
font size
0
reset
guitar tuner
Tab Pro tools
  • play this tab
  • loop segment
  • change instrument
  • show fretboard
  • metronome
Autoscroll
slow
fast
+/-
esc
set tempo
stop
Contributor
Difficulty
Tuning
intermediate
C G C F A D
-----------------------------------------------------------------------------
			     Oblivion - Mastodon
-----------------------------------------------------------------------------
Tabbed By : bmueller1717
e-mail: bmmmr2@gmail.com

The other tab on here was decent,  but there were errors and parts not tabbed out at 
So this is the way I play it.


Intro 1
F|-8------------8--------------8------------8-----------|
C|-----0~-----------0--------------0~-----------0-------|
G|---6------------6--------------6------------6---(12)~-|
C|--------------------0~--------------------------------|

Intro 2
F|-8-------------|
C|-----0---------| Intro 2
G|---6---3---5---|   x10
C|---------0---0-|

Intro 3
F|-8-----------------------------|
C|-----0-------------------------|
G|---6---3---5---6---5---3---5---|
C|---------0---0---0---0---0---0-|

Intro 4
F|---10---------------10-------|
C|------0----------------0-----| Intro 4
G|-8------7-5-------8------5-7-|    x2
C|-----------------------------|

Verse
F|-------------------------------------------------|
C|-------------1-----------------------1-----------|
G|-3-------3-----------3---3-------3-----------3---|
C|---1-1-1---1---1-1-1---1---1-1-1---1---1-1-1---1-|

F|-------------------------------------------------|
C|-------------4-----------------------------------| Verse
G|-2-------2-----------2---2-------2---4-------2---|   x2
C|---0-0-0---0---0-0-0---0---0-0-0---0---0-0-0---0-|

Pre-Chorus
F|-----------------------------------------------------------|
C|-----------------------------------------------------------|
G|-10-----7-------10-----7-------10-----7-------10-----7-----|
C|----8-7---8-0------8-7---8-0------8-7---8-0------8-7---8-0-|

F|-------------------------------------------------------|
C|-------------------------------------------------------| Pre-Chorus
G|-8-------------8-------------8-------------8-----------|     x2
C|---8-7-5-7-8-----8-7-5-7-8-----8-7-5-7-8-----8-7-5-7-8-|

Chorus 1
F|---------------------------------------------------|
C|---------------2-5-2-------------------------------| Chorus 1
G|-----------2-3-------3---------------------7-5-5-7-|    x2
C|-3--3--3~--------------------7--7--7~--7-8---------|

Chorus 2
F|-----------------------|
C|-----------------------|
G|---------------5-3-3-5-|
C|-5--5--5~--0-3---------|

Verse      [x2]
Pre-Chorus [x2]
Chorus 1   [x2]
Chorus 2   [x1]
Chorus 1   [x2]
Chorus 2   [x1]

Bridge 1
F|-----------------------------9-10----10-|
C|------12-13----13-----------------12----| Bridge 1
G|------------15--------------------------|    x2
C|-0~---------------------0~--------------|

Bridge 2
F|------8--------8--------8--------8---|---------------------|
C|-------------------------------------|---------------------|
G|----6---6----6---6----6---6----6---6-|---------------------|
C|-0~-------0~-------0~-------0~-------|-8~\10/8~---8~\10/8~-|

F|------8--------8--------8--------8---|----------------------|
C|-------------------------------------|----------------------|
G|----6---6----6---6----6---6----6---6-|----------------------|
C|-0~-------0~-------0~-------0~-------|-8\10\12\14/12/10/8/7-|

Bridge 3
F|----------------------------------------------------------|
C|----------------------------------------------------------|
G|-5~--5-5~--5-5~--5-5~--5\17171717171717171717171717171717-|
C|----------------------------------------------------------|

F|--------------------------------------------|
C|--------------------------------------------|
G|--------------------------------------------|
C|-2~--2\14~--14~--14~----2~--2\14~--14~--14~-|

F|----------------------------------------------------|
C|-----5--------5--------8--8--------------7----------|
G|---5-------5---------8-------8---------7------------|
C|-5------5----------8------------8----7------7--7--7-|

F|----------------------------------------|
C|----------------------------------------|
G|----------------------------------------|
C|-5~--4~--5-7-4~-----17~--16~--17-19-16~-|

Bridge 4
F|-------------------------|-------------------------------------------|
C|-------------------------|-------------------------------------------|
G|-------------------------|-------------------------------------------|
C|-8-7-8-10-8-10-12-0-00-0-|-8-7-8-10-8-10-12-10-12-14-12-10-12-0-00-0-|

F|-------------------------|
C|-------------------------|
G|-------------------------|
C|-8-7-8-10-8-10--00-0-15~-|

Chorus 1   [x2]
Chorus 2   [x1]
Chorus 1   [x2]
Chorus 2   [x1]

Ending
F|--------------------------------------------------|
C|--------3~-----------7~-----------3~-----------7~-|
G|--------------------------------------------------|
C|-3-3--3-------7-7--7-------3-3--3-------7-7--7----|

F|------------------------|
C|--------5~--------------|
G|------------------------|
C|-5-5--5-------0-0--0-3~-|
comments
print report bad tab
3 comments total.
0 reply
tom the ginger wrote on January 8 2010, 03:56 pm

can't find a single flaw to this. good work =)

0 reply
Survivalism wrote on March 20 2010, 01:49 am

If you listen closely to the instrumental, the first measure of the chorus is something more like:



C----------10-----------10--------10-------
G-------8---8--------8---------8-------------
C---0-----------0------------------------------

0 reply
Thirteenstrings wrote on April 7 2013, 09:35 pm

Excellent work! My band is covering this now, used this tab to learn it.

I want to post or [tab]
guest
You may want to rate the tab now too:
select rating
Please do not post tabs as comments. Select "correction" instead!