Oops, an error
Loading. Please wait.

Oblivion Bass Tab

version 3
version 3
910 views 6 this week
no commentswrite comment
1 2 3 4 5
please rate
add to favorites
launch autoscroll
font size
0
reset
guitar tuner
Tab Pro tools
  • play this tab
  • loop segment
  • change instrument
  • show fretboard
  • metronome
×
Best way to learn
"Oblivion"
Autoscroll
slow
fast
+/-
esc
set tempo
stop
Contributor
Difficulty
Tuning
intermediate
C G C F A D
-------------------------------------------------------------------------------
                                                Mastodon - Oblivion
-------------------------------------------------------------------------------
Tabbed by: Shannon
E-mail: sleedelorme@gmail.com

This was tabbed based on some youtuber's videos, Mastodon's video Live at the Aragon,
and the studio recording. I did my best to make sure it was as accurate as possible to the
studio recording. This is the song IN IT'S ENTIRETY, no parts should be missing from 
this tab, I hope you enjoy it, this is my first tab. Also, don't be afraid to use a pick for
this one, Troy does, but it can be played either way.

Bass comes in at 0:10

Tuning: Drop C [CGCF]

INTRO:

G|-8-------8----------8-------8-----------|-8---------|---|------------------|
D|-----0------0------------0-------0---7+-|-----------|---|------------------|
A|--6------6------------6-------6---------|--6-5-3-5--|---|-6-5-3-5----------|
E|--------------0~------------------------|-----0-0-0-|x11|--0-0-0-----------|

G|-10----------10---------|--------------------------------------------------|
D|------------------------|--------------------------------------------------|
A|----8/5-7-5-----8/5-7-8-|--------------------------------------------------|
E|------------------------|x2------------------------------------------------|

VERSE:
You can play this as it is tabbed, or double all the notes on the low C string to keep
pace with the rhythm guitar (I believe)

G|---------------------------------------------------------------------------|
D|--------------1-----------------------1------------------------------------|
A|-3-------3------------3---3-------3-----------3----------------------------|
E|---1-1-1---1----1-1-1---1---1-1-1---1---1-1-1---1--------------------------|

G|-----------------------------------------------------------------------------|
D|-------------4------------------------4--------------------------------------|
A|-2-------2-----------2---2-------2------------2------------------------------|
E|---0-0-0---0---0-0-0---0---0-0-0---0----0-0-0---0----------------------------|x2

PRE-CHORUS:

G|-----------------|---|-------------|---|-------------------------------------|
D|-----------------|---|-------------|---|-------------------------------------|
A|-10-------8------|---|-8-----------|---|-------------------------------------|
E|----8-7-----10-8-|x4-|---8-7-5-7-8-|x4-|-------------------------------------|x2

CHORUS:

G|-----------------------------------------------------------------------------|
D|-----------------2h5---------------------------------------------------------|
A|-------------0h3-----3--------------------7-5-3/5----------------------------|
E|/3-3-3-3--3-3-----------7-7-7-7--7-7-7h10------------------------------------|x2

G|---------------------------------------------------------------------------|
D|---------------------------------------------------------------------------|
A|------------------5\3-3h5--------------------------------------------------|
E|5-5-5-5--5-5--5h7----------------------------------------------------------|

SOLO:
This covers the slow part right before the solo, the solo itself, and then the parts
after the solo before the start of the last chorus, I just grouped it together for the sake
of convenience.

G|------12h13----12-----9h10----|---|-------8-|---|--------------------------|
D|------------15-------------11-|---|-----0---|---|--------------------------|
A|------------------------------|---|---6-----|---|--------------------------|
E|--0~--------------0~----------|x2-|-0-------|x4-|-8/10-8-8-8/10-8----------|

G|-------8-|---|------------------------7~----7~------19~------19------------|
D|-----0---|---|-------------------------------------------------------------|
A|---6-----|---|----------------------5~--5-5~---5/17~---17-17~--------------|
E|-0-------|x4-|-8~/10/12/15\12-10-8\----------------------------------------|

G|-----------------------|---|-----------------------------------------------|
D|-----------------------|---|-----------------------------------------------|
A|-----------------------|---|-----------------------------------------------|
E|-2-2-2/14~---14~---14~-|x2-|-5--5--5/7--7--7/8--8--------------------------|

G|-----------------------|---|-----------------------------------------------|
D|-----------------------|---|-----------------------------------------------|
A|-10~--9~--10--10/12--9-|---|-1p0h1-3p1h3/5---------------------------------|
E|-----------------------|x2-|---------------0-0-0-0-0-----------------------|

G|---------------------------------------------------------------------------|
D|---------------------------------------------------------------------------|
A|-1p0h1-3p1h3/5p3h5/7p5\3h5-------------1p0h1-3p1h3-----8~------------------|
E|---------------------------0-0-0-0-0-0------------0-0-0--------------------|

OUTRO: this is what I believe Troy plays after the final chorus

G|-----------------------|---|-----------------------------------------------|
D|-----------------------|---|-----------------------------------------------|
A|-----------------------|---|-----------------------------------------------|
E|-0-0-0/15~---7-7-7/19~-|x2-|-5-5-5/17~---12--12-12\0~----------------------|

Order for song:

INTRO
VERSE
PRE-CHORUS
CHORUS
VERSE
PRE-CHORUS
CHORUSx2
SOLO
CHORUS
OUTRO


| /  slide up
| \  slide down
| h  hammer-on
| p  pull-off
| ~  vibrato
| +  harmonic
| x  Mute note
===============================================================================
comments
We did not receive enough feedback on this tab! Please rate:
print report bad tab
1 2 3 4 5
I want to post or [tab]
guest
You may want to rate the tab now too:
select rating
Please do not post tabs as comments. Select "correction" instead!