Oops, an error
Loading. Please wait.

Once More Round The Sun Tab

version 1
version 1

Intro

Whole song

Interactive

396 views 6 this week
no commentswrite comment
1 2 3 4 5
3 more votes to show rating
add to favorites
launch autoscroll
font size
0
reset
how to read this tab
guitar tuner
×
Best way to learn
"Once More Round The Sun"
Autoscroll
slow
fast
+/-
esc
set tempo
stop
Author
Difficulty
Tuning
intermediate
C G C F A D
-------------------------------------------------------------------------------
                     Once More 'Round The Sun (INTRO) - Mastodon
-------------------------------------------------------------------------------
Tabbed by:  Jeff Lane
E-mail:  heartofcygnus@gmail.com

Tuning:  CDCFAD

d|--------------------------------------------------------|
A|------------8-------------8-------------8-------------8-|
F|------0---7---------0---7---------0---7---------0---7---|
C|----7---9---------7---9---------7---9---------7---9-----|
G|--9-------------9-------------9-------------9-----------|
C|0-------------0-------------0-------------0-------------|

d|0-----0-------0-----0-------0-----0-------0-----0-------|
A|--5-----0-------5-----0-------5-----0-------5-----0-----|
F|----7-----5-------7-----5-------7-----5-------7-----5---|
C|------------7-------------7-------------7-------------7-|
G|--------------------------------------------------------|
C|--------------------------------------------------------|


************************************

| /   slide up
| \   slide down
| h   hammer-on
| p   pull-off
| ~   vibrato
| +   harmonic
| x   Mute note
| b   Bend
| pb  Pre-bend
| br  Bend release
| pbr Pre-bend release
| brb Bend release bend

************************************
Suggest correction
Give kudos to tab author, rate the tab!
1 2 3 4 5
comments
print report bad tab
guest
You may want to rate the tab now too:
select rating
Wanna post a correction for this tab? Suggest correction