Oops, an error
Loading. Please wait.

Quintessence Tab

version 1
version 1

Whole song

Interactive

7,900 views 9 this week
3 commentsread comments
1 2 3 4 5
please rate
add to favorites
launch autoscroll
font size
0
reset
how to read this tab
guitar tuner
Autoscroll
slow
fast
+/-
esc
set tempo
stop
Help us to improve Ultimate-Guitar.com Take our survey!
×
Author
Punchup 253
Mastodon - Quintessence

Intro

D|--------------------------------------|
A|-10-----10-----6--5-------------------|
F|b13----b13----b9-b8-------------------|
C|------------------------9h10--(7)-----|
G|--------------------------------------|
C|--------------------------------------|

D|--------------------------------------|
A|--------------------------------------|
F|--------------------------------------|
C|-12------12-----8--7------------------|
G|-12------12-----8--7------------------|
C|-12------12-----8--7------------------| x2


Verse

D|-13----------------------------|-13----------------------------|
A|-------------------------------|-------------------------------|
F|---------13--16-------13--16---|---------13--16-------13--16---|
C|---14h15---15----14h15--15--15-|---14h15---15----14h15--15--15-|
G|-------------------------------|-------------------------------|
C|-------------------------------|-------------------------------|

D|-8------------------------|-8-------------------------|
A|--------------------------|---------------------------|
F|--------8--11------8-11---|--------8--11------8--11---|
C|---9h10--10---9h10-----10-|---9h10--10---9h10--10--10-|
G|--------------------------|---------------------------|
C|--------------------------|---------------------------| x6

Pre Chorus (somehow these chords)
D|-----------------------------------|
A|--0-----------0--------0--------0--|
F|--5-----------9--------5-------10--|
C|--7----------11--------7-------12--|
G|--0-----------0--------0--------0--|
C|-----------------------------------|

Chorus
D|--------------------------|
A|--------------------------|
F|--------------------------|
C|--7-7--4h5p4-/7--5-4h5p4--|
G|--7-7--4h5p4-/7--5-4h5p4--|
C|--7-7--4h5p4-/7--5-4h5p4--|

D|-------------------------|
A|-------------------------|
F|-------------------------|
C|--4-4----8-8-7------7-7--|
G|--4-4----8-8-7------7-7--|
C|--4-4----8-8-7------7-7--| x2

D|------------------------------------|
A|------------------------------------|
F|------------------------------------|
C|--7~/12~~~~~~~~~~~-7~/12~~~~~~~~~~~-|
G|--7~/12~~~~~~~~~~~-7~/12~~~~~~~~~~~-|
C|--7~/12~~~~~~~~~~~-7~/12~~~~~~~~~~~-| x3

D|------------------------------------|
A|------------------------------------|
F|------------------------------------|
C|--7~/12~~~~~~~~~~~-7~/12~~~~~~-7-7--|
G|--7~/12~~~~~~~~~~~-7~/12~~~~~~-7-7--|
C|--7~/12~~~~~~~~~~~-7~/12~~~~~~-7-7--|

D|-------------------------|
A|-------------------------|
F|-------------------------|
C|--4-4----8-8-7------7-7--|
G|--4-4----8-8-7------7-7--|
C|--4-4----8-8-7------7-7--| x2

D|-----------------------------------|
A|-----------------------------------|
F|-----------------------------------|
C|------12p0----10p0-10p0------9p0---|
G|--0h10----0h9-----------0h10-------|
C|-----------------------------------|

D|-----------------------------------|
A|-----------------------------------|
F|-----------------------------12p0--|
C|------12p0----10p0-10p0------------|
G|--0h10----0h9-----------0h10-------|
C|-----------------------------------| x2

Verse  x4

Pre Chorus

Chorus

Verse x2

Modified Verse

D|----------------------------------------------|
A|----------------------------------------------|
F|----------------------------------------------|
C|--4h2-2-4h2-2-5-2h4p2-2-4h2-2-4h2-2-5-2h4p2-2-|
G|--4h2-2-4h2-2-5-2h4p2-2-4h2-2-4h2-2-5-2h4p2-2-|
C|--4h2-2-4h2-2-5-2h4p2-2-4h2-2-4h2-2-5-2h4p2-2-|

D|-8------------------------|-8-------------------------|
A|--------------------------|---------------------------|
F|--------8--11------8-11---|--------8--11------8--11---|
C|---9h10--10---9h10-----10-|---9h10--10---9h10--10--10-|
G|--------------------------|---------------------------|
C|--------------------------|---------------------------| x2

Outro x2

D|--------------------------------------------|
A|--------------------------------------------|
F|--------------------------------------------|
C|--6--2-2----6-6--2-2------------------------|
G|--6--2-2----6-6--2-2--------2h3p2-0-2p0---0-|
C|--6--2-2----6-6--2-2----2-5-------------5---| x2

D|--------------------------------------------|
A|--------------------------------------------|
F|--------------------------------------------|
C|--3--2-2----3-3--2-2------------------------|
G|--3--2-2----3-3--2-2--------2h3p2-0-2p0---0-|
C|--3--2-2----3-3--2-2----2-5-------------5---| x2

1st time
D|--------------------------------|
A|--------------------------------|
F|--5--4-5-4-5-7-5-----4-5-4-5-7--|
C|--------------------------------|
G|--3--2-3-2-3-5-3-----2-3-2-3-5--|
C|--------------------------------|

2nd time
D|------------------------------|
A|------------------------------|
F|--5--4-5-4-5-7-5-----5-9-7-5--|
C|------------------------------|
G|--3--2-3-2-3-5-3-----3-7-5-3--|
C|------------------------------|

END
D|---------------------|
A|---------------------|
F|---------------------|
C|--6---2-2~~~~~~~~~~~~|
G|--6---2-2~~~~~~~~~~~~|
C|--6---2-2~~~~~~~~~~~~|


There are certainly some parts wrong.
Comment pls if u got any suggestions. (punchup@gmx.de)

Great Song
Suggest correction
What's this?
You can suggest a correction to this tab. Community and Mods will review your correction and vote to approve or reject it.
comments
We did not receive enough feedback on this tab! Please rate:
print report bad tab
1 2 3 4 5
3 comments total.
0 reply
MrAzat20 159 wrote on August 25 2013, 01:35 pm

I have the crack the skye bass tabs book. It says the song is in D standard. So Im pretty sure if the bass is in D Standard, the guitars are tuned that way too.

0 reply
randomluck93 11 wrote on May 14 2015, 09:40 am

The guitars are tuned to Drop C and the Bass is either in D standard or Drop C. Got to ask that question to Brent Hinds when they played in my hometown!

0 reply
Pepistone 54 wrote on September 16 2015, 06:10 am

I think the verse is a little bit wrong. I made a video to explain how I think it is played (hybrid picked).

https://www.youtube.com/watch?v=5Ht3NNqIsZQ

guest
You may want to rate the tab now too:
select rating
Please do not post tabs as comments. Select "correction" instead!