Oops, an error
Loading. Please wait.

Seabeast tab

version 3
version 3

Whole song

666 views 6 this week
1 commentread comment
1 2 3 4 5
1 last vote to show rating
add to favorites
×
Save as Personal and add changes to this tab that will be seen only by you. Learn more ›
×
You can save this tab as Personal to edit and correct it or add notes. All changes will be seen only by you. Learn more »
launch autoscroll
font size
0
reset
how to read this tab
guitar tuner
backing track
0:00
0:00
edit
Autoscroll
slow
fast
+/-
esc
set tempo
stop
-------------------------------------------------------------------------------
                            Seabeast - Mastodon
-------------------------------------------------------------------------------
Tabbed by: brianstanek25

Tuning: D-Standard (DGCFAD)

****************************
             KEY
| /   slide up
| \   slide down
| h   hammer-on
| p   pull-off
| ^   Bend
| ~   vibrato
| x   palm mute (when below)

*****************************


Intro
0:00                                                 [Guitar II]
D|-------------------------------------------------------------|
A|----------0-------------0---------------0---------------0----|
F|-------10---10-------10---10---------13---13---------13---13-|x6
C|-----0-------------0---------------0---------------0---------|
G|---5-------------5--------------12--------------12-----------|
D|-7-------------7-------------10--------------10--------------|


0:12 (After Guitar II's part twice)           [Guitar I]
D|------------------10h14p10---------------------------|
A|---------------12----------12----12/14~~~12-14h15~~~-|
F|----------7/11----------------11---------------------|
C|--------9--------------------------------------------|
G|------9----------------------------------------------|
D|-7-10------------------------------------------------|
 |
D|---------------------------------------------------|
A|---------------12-10-------------------------------|
F|----------7/11-------11p10h11-10-11~~~~10~~~~10h11-|
C|--------9------------------------------------------|
G|------9--------------------------------------------|
D|-7-10----------------------------------------------|
 |
D|------------------10h14p10---------------------------|
A|---------------12----------12----12/14~~~12-14h15~~~-|
F|----------7/11----------------11---------------------|
C|--------9--------------------------------------------|
G|------9----------------------------------------------|
D|-7-10------------------------------------------------|
 |
D|---------------------------------------------|
A|---------------12-10-------------7-----------|
F|----------7/11-------11p10h11p10-9^(11-9)----|
C|--------9------------------------------------|
G|------9--------------------------------------|
D|-7-10----------------------------------------|
(Slow release and tremolo on the 9 at the end)



Verse I
0:35                                        [Guitar I and II]
D|----------------------------------------------------------|
A|----------------------------------------------------------|
F|----------------------------------------------------------|
C|----------------------------------------------------------|x4
G|5/8-8-8-8---4/7-7--\4/5-5-5-5--8-8-8---5-8---4-7---5/8---4|
D|3/6-6-6-6---2/5-5--\2/3-3-3-3--6-6-6-0-3/6-0-2-5-0-3/6-0-2|
(The 2/4 chord at the end directly transitions by sliding into the 3/5 at the beginning)



Preverse
1:03                                                 [Guitar II]
D|-------------------------------------------------------------|
A|----------0-------------0---------------0---------------0----|
F|-------10---10-------10---10---------13---13---------13---13-|x4
C|-----0-------------0---------------0---------------0---------|
G|---5-------------5--------------12--------------12-----------|
D|-7-------------7-------------10--------------10--------------|


                                              [Guitar I]
D|------------------10h14p10---------------------------|
A|---------------12----------12----12/14~~~12-14h15~~~-|
F|----------7/11----------------11---------------------|
C|--------9--------------------------------------------|
G|------9----------------------------------------------|
D|-7-10------------------------------------------------|
 |
D|---------------------------------------------------|
A|---------------12-10-------------------------------|
F|----------7/11-------11p10h11-10-11~~~~10~~~~10h11-|
C|--------9------------------------------------------|
G|------9--------------------------------------------|
D|-7-10----------------------------------------------|
 |
D|------------------10h14p10---------------------------|
A|---------------12----------12----12/14~~~12-14h15~~~-|
F|----------7/11----------------11---------------------|
C|--------9--------------------------------------------|
G|------9----------------------------------------------|
D|-7-10------------------------------------------------|
 |
D|---------------------------------------------|
A|---------------12-10-------------7-----------|
F|----------7/11-------11p10h11p10-9^(11-9)----|
C|--------9------------------------------------|
G|------9--------------------------------------|
D|-7-10----------------------------------------|
(Again, slow release and tremolo)


Verse II
0:35                                        [Guitar I and II]
D|----------------------------------------------------------|
A|----------------------------------------------------------|
F|----------------------------------------------------------|x4
C|----------------------------------------------------------|
G|5/8-8-8-8---4/7-7--\4/5-5-5-5--8-8-8---5-8---4-7---5/8---4|
D|3/6-6-6-6---2/5-5--\2/3-3-3-3--6-6-6-0-3/6-0-2-5-0-3/6-0-2|
 |
D|------------------------|---------------------|------------------|
A|------------------------|---------------------|------------------|
F|------------------------|---------------------|------------------|
C|------------------------|---------------------|------------------|
G|---5-8---4-7---5/8---4--|5-8---4-7---5/8---4--|5-8---4-7---5/8---|
D|-0-3/6-0-2-5-0-3/6-0-2-0|3/6-0-2-5-0-3/6-0-2-0|3/6-0-2-5-0-3/6-0-|



Chorus I
1:59                                    [Guitar I]
D|-----------------------------------------------|
A|-----------------------------------------------|
F|-----------------------------------------------|x4
C|-9-------9-------9-10-10-10-9-7-9-10-10-10-9-7-|
G|-7-------7-------7-8--8--8--7-5-7-8--8--8--7-5-|
D|-----0-------0---------------------------------|


                                     [Guitar II]
D|---------------------------------------------|
A|---------------------------------------------|
F|-9~~~----9~~~----9-10-10~~-9-7-9-10-10~~-9-7-|x2
C|---------------------------------------------|
G|-7-------7-------7-8--8-- -7-5-7-8--8----7-5-|
D|-----0-------0-------------------------------|
 |
D|----------------------------------------------------|
A|----------------------------------------------------|
F|-13~~----13~~-----13-14-14~~-13-11-13-14-14~~-13-11-|x2
C|----------------------------------------------------|
G|-11------11-------11-12-12---11-9--11-12-12---11-9--|
D|-----0--------0-------------------------------------|
(Same pattern for both GII parts. There is a small difference between GI and GII, however)



Verse III
2:21                                          [Guitar I and II]
D|------------------------------------------------------------|
A|------------------------------------------------------------|
F|------------------------------------------------------------|x4
C|------------------------------------------------------------|
G|5/8-8-8-8---4/7-7---\4/5-5-5-5---8-8-8---5-8---4-7---5/8---4|
D|3/6-6-6-6---2/5-5---\2/3-3-3-3---6-6-6-0-3/6-0-2-5-0-3/6-0-2|
(On the last time, skip the 2-4 chord at the end.)



Chorus II
2:48                                    [Guitar I]
D|-----------------------------------------------|
A|-----------------------------------------------|
F|-----------------------------------------------|x4
C|-9-------9-------9-10-10-10-9-7-9-10-10-10-9-7-|
G|-7-------7-------7-8--8--8--7-5-7-8--8--8--7-5-|
D|-----0-------0---------------------------------|


                                     [Guitar II]
D|---------------------------------------------|
A|---------------------------------------------|
F|-9~~~----9~~~----9-10-10~~-9-7-9-10-10~~-9-7-|x2
C|---------------------------------------------|
G|-7-------7-------7-8--8----7-5-7-8--8----7-5-|
D|-----0-------0-------------------------------|
 |
D|----------------------------------------------------|
A|----------------------------------------------------|
F|-13~~----13~~-----13-14-14~~-13-11-13-14-14~~-13-11-|x2
C|----------------------------------------------------|
G|-11------11-------11-12-12---11-9--11-12-12---11-9--|
D|-----0--------0-------------------------------------|



Solo
3:09                                                 [Guitar I]
D|-12---------12------------------------0----------------0----|
A|-15^(17)----15^(17)-------------12---------------12---------|
F|------------------------------------------------------------|
C|--------14~~-------14~~12-14h15----15---15-14h15----15---15-|
G|------------------------------------------------------------|
D|------------------------------------------------------------|
 |
D|-7----------7----------------------------------------|
A|-10^(12)----10^(12)-----------8--------0----8--------|
F|-----------------------------------------------------|x2(The whole section)
C|---------9~~--------9~~7-9h10-----10p9---10-----10p9-|
G|-----------------------------------------------------|
D|-----------------------------------------------------|

                                 [Guitar II]
D|-----------------------------------------|
A|-----------------------------------------|
F|-----------------------------------------|x4
C|-2-------2-------2-3-3-3-2-0-2-3-3-3-2-0-|
G|-2---2---2---2---2-3-3-3-2-0-2-3-3-3-2-0-|
D|-----0-------0---------------------------|



Outro
3:30                                                                      [Guitar II]
D|----------------------------------------------------------------------------------|
A|----------------------------------------------------------------------------------|
F|----------------------------------------------------------------------------------|
C|-10-9-----------10--7---10-10-9-----------10--7-------------------10--7---10-10-9-|
G|-8--7-----------8---5---8--8--7-----------8---5---7-7-6-----------8---5---8--8--7-|
D|------0-0000000---0---0---------0-0000000---0---0-5-5-4-0-0000000---0---0---------|
 |      x xxxxxxx   x   x         x xxxxxxx   x   x       x xxxxxxx   x   x       
 |
D|-----------------------------------------------|
A|-----------------------------------------------|
F|-----------------------------------------------|x4(The whole section)
C|----------------7-8-10-8-10-10-5-6-8-6-8-8-10--|
G|-7-8-10-8-10-10----------------------------8---|
D|-----------------------------------------------|
 | x x  x x  x  x x x  x x  x  x x x x x x x
 |
D|------------|
A|------------|
F|------------|
C|-10-9-------|
G|-8--7-------|
D|------------|
END (of Guitar II)

                                                                           [Guitar I]
D|----------------------------------------------------------------------------------|
A|----------------------------------------------------------------------------------|
F|--------------------------------------------------9-9-8---------------------------|
C|-10-9-----------10--7---10-10-9-----------10--7---7-7-6-----------10--7---10-10-9-|
G|-8--7-----------8---5---8--8--7-----------8---5-------------------8---5---8--8--7-|
D|------0-0000000---0---0---------0-0000000---0---0-------0-0000000---0---0---------|
 |      x xxxxxxx   x   x         x xxxxxxx   x   x       x xxxxxxx   x   x       
 |
D|----------------------------------------------|
A|----------------------------------------------|
F|----------------------------------------------|
C|----------------7-8-10-8-10-10-5-6-8-6-8-8-10-|
G|-7-8-10-8-10-10----------------------------8--|
D|----------------------------------------------|
 | x x  x x  x  x x x  x x  x  x x x x x x x
 |
D|----------------------------------------------------------------------------------|
A|----------------------------------------------------------------------------------|
F|--------------------------------------------------9-9-8---------------------------|
C|-10-9-----------10--7---10-10-9-----------10--7---7-7-6-----------10--7---10-10-9-|
G|-8--7-----------8---5---8--8--7-----------8---5-------------------8---5---8--8--7-|
D|------0-0000000---0---0---------0-0000000---0---0-------0-0000000---0---0---------|
 |      x xxxxxxx   x   x         x xxxxxxx   x   x       x xxxxxxx   x   x     
 |
D|--------------------------------------------------------|
A|--------------------------------------------------------|
F|------------------9-10-12-10-12-12----------------------|
C|-9-10-12-10-12-12------------------10-11-13-11-13-13-10-|
G|-----------------------------------------------------8--|
D|--------------------------------------------------------|
 | x  x  x  x  x  x x  x  x  x  x  x  x  x  x  x  x  x
 |
D|----------------------------------------------------------------------------------|
A|----------------------------------------------------------------------------------|
F|--------------------------------------------------9-9-8---------------------------|
C|-10-9-----------10--7---10-10-9-----------10--7---7-7-6-----------10--7---10-10-9-|
G|-8--7-----------8---5---8--8--7-----------8---5-------------------8---5---8--8--7-|
D|------0-0000000---0---0---------0-0000000---0---0-------0-0000000---0---0---------|
 |      x xxxxxxx   x   x         x xxxxxxx   x   x       x xxxxxxx   x   x     
 |
D|----------------------------------------------|
A|----------------------------------------------|
F|----------------------------------------------|
C|----------------7-8-10-8-10-10-5-6-8-6-8-8-10-|
G|-7-8-10-8-10-10----------------------------8--|
D|----------------------------------------------|
 | x x  x x  x  x x x  x x  x  x x x x x x x
 |
D|----------------------------------------------------------------------------------|
A|----------------------------------------------------------------------------------|
F|--------------------------------------------------9-9-8---------------------------|
C|-10-9-----------10--7---10-10-9-----------10--7---7-7-6-----------10--7---10-10-9-|
G|-8--7-----------8---5---8--8--7-----------8---5-------------------8---5---8--8--7-|
D|------0-0000000---0---0---------0-0000000---0---0-------0-0000000---0---0---------|
 |      x xxxxxxx   x   x         x xxxxxxx   x   x       x xxxxxxx   x   x      
 |
D|-------------------------------------------------------------|
A|-------------------------------------------------------------|
F|------------------9-10-12-10-12-12---------------------------|
C|-9-10-12-10-12-12------------------10-11-13-11-13-13-10-10-9-|
G|-----------------------------------------------------8--8--7-|
D|-------------------------------------------------------------|
   x  x  x  x  x  x x  x  x  x  x  x  x  x  x  x  x  x

END

---------------------------------------------------------------------------------------------------------------
If you have questions, ask me and I'll get back to you as soon as I can.
Have a suggestion?  See something wrong? Send me a message.  Thanks!

            
            
Suggest correction
Creating personal tab
Creating personal tab
You can edit any tab online and save it as your Personal.

You can edit, replace or remove any tab part or add personal notes – all changes will be seen only by you.

Personal tabs can be accessed anytime from any device, even offline.
Learn more »
Give kudos to tab author, rate the tab!
1 2 3 4 5
comments
print report bad tab
1 comment total.
0 reply
snorrirafnhallsson 10 Jul 13, 2016 12:30 PM

Perfect! This is the best way to play it, beats the other two tabs for sure

guest
You may want to rate the tab now too:
select rating
Wanna post a correction for this tab? Suggest correction