Oops, an error
Loading. Please wait.

Sleeping Giant bass

version 1
version 1

Whole song

Interactive

601 views 6 this week
1 commentread comment
1 2 3 4 5
x 7
add to favorites
×
Save as Personal and add changes to this tab that will be seen only by you. Learn more ›
×
You can save this tab as Personal to edit and correct it or add notes. All changes will be seen only by you. Learn more »
launch autoscroll
font size
0
reset
guitar tuner
backing track
0:00
0:00
edit
Autoscroll
slow
fast
+/-
esc
set tempo
stop
Title: Sleeping Giant
Artist: Mastodon
Album: Blood Mountain
Tuning: Drop C (C G C F)
Tab Author: Pearce Hamblin (The Bass Diaries)

4/4
F|--------|--------------------|-----------------|--------|--------|--------------------|
C|--------|--------------------|-----------------|--------|--------|--------------------|
G|-5------|----------------3---|-5-----5---10----|--------|-5------|----------------3---|
C|--------|--------------------|-----------------|--------|--------|--------------------|


F|--------|--------------------|----------------|--------|--------|--------|--------|
C|--------|--------------------|----------------|--------|--------|--------|--------|
G|-5------|----------------3---|-5----------5---|-10-----|-5------|--------|--------|
C|--------|--------------------|----------------|--------|--------|--------|--------|


F|--------|--------|--------------------|----------------|-------------|--------|--------|
C|--------|--------|--------------------|----------------|-------------|--------|--------|
G|--------|--------|----------------3---|-5----------5---|-10----5-----|--------|--------|
C|--------|-0------|--------------------|----------------|-------------|-0------|--------|


F|--------|--------------------|----------------|----------------|--------|---------------------------------|
C|--------|--------------------|----------------|----------------|--------|---------------------------------|
G|--------|----------------3---|-5----------5---|-10---------10--|-5------|-----10--5///8---8///10--10//12--|
C|-0------|--------------------|----------------|----------------|--------|---------------------------------|


F|--------|--------|-------------5---------|-------------4---------|-4---5---4---2---4---2-----------|
C|--------|--------|-----------------------|-----------------------|-------------------------0---2---|
G|--------|--------|-0---5---7-------------|-0---5---7-------------|---------------------------------|
C|--------|--------|-----------------------|-----------------------|---------------------------------|


F|----------------|-------------|----------------|---------------------------------|
C|-3--------------|-------------|----------------|---------------------------------|
G|----------------|-------------|-0---2----------|-2---3---2---0---2---0-----------|
C|------------5---|-7------7----|----------------|-------------------------0---2---|


F|--------|--------|--------|-------------|--------|--------------------|--------|
C|--------|--------|--------|-------------|--------|--------------------|--------|
G|--------|-0------|-2------|-------------|--------|----------------3---|-5------|
C|-3------|--------|--------|-2-----5-----|-0------|--------------------|--------|


F|-------------|----------------|--------------------|--------------------|-----------------|
C|-------------|----------------|--------------------|--------------------|-----------------|
G|-------8-----|-1----------1---|-1-----1---3--------|-5--------------5---|-5-----5---3-----|
C|-0-----------|----------------|--------------------|--------------------|-----------------|


F|------------------------|------------------------------|---------------------|---------------------------|
C|------------------------|------------------------------|---------------------|---------------------------|
G|-1----1---1----1---1----|-1---1----1---1---3---3---5---|-5-----5----5---5----|-----5----5---5---8---8----|
C|------------------------|------------------------------|---------------------|---------------------------|


F|------------------|---------------------------------|--------|--------|------------------------|
C|------------------|---------------------------------|--------|--------|------------------------|
G|-1-----1-----1----|---------------------------------|--------|--------|-5-----5-------5---5----|
C|------------------|-----0---5---3---2---3---2---3---|-0------|--------|------------------------|


F|---------------------------------|------------------------|---------------------------------|
C|---------------------------------|------------------------|---------------------------------|
G|-----5---8---5---7---5---4---5---|------------------------|---------8-------5-------7-------|
C|---------------------------------|-0-----0-------0---0----|-----0---------------------------|


F|------------------------|---------------------------------|------------------------|
C|------------------------|---------------------------------|------------------------|
G|-0-----0-------0---0----|-----0---8---5---7---5---4---5---|------------------------|
C|------------------------|---------------------------------|-0-----0-------0---0----|


F|---------------------------------|------------------------|---------------------------------|
C|---------------------------------|------------------------|---------------------------------|
G|---------8-------5-------7-------|-0-----0-------0---0----|-----0---8---5---7---5---4---5---|
C|-----0---------------------------|------------------------|---------------------------------|


F|------------------------|------------------------------|------------------------|
C|------------------------|------------------------------|------------------------|
G|------------------------|-----8---8---8---8---8--------|------------------------|
C|-0-----0-------0---0----|-------------------------7\\\\|\2-----2-------2---2----|


F|---------------------------------|------------------------|---------------------------------|
C|---------------------------------|------------------------|---------------------------------|
G|---------------------------------|---------------3---5----|-----5---8---5---7---5---4---5---|
C|-----2---3---3---3---3---3---3---|-0-----0----------------|---------------------------------|


F|------------------------|---------------------------------|------------------------|
C|------------------------|---------------------------------|------------------------|
G|------------------------|---------8-------5-------7-------|-0-----0---0---0---0----|
C|-0-----0-------0---0----|-----0---------------------------|------------------------|


F|---------------------------------|------------------------|---------------------------------|
C|---------------------------------|------------------------|---------------------------------|
G|-----0---8---5---7---5---4---5---|------------------------|---------8-------5-------7-------|
C|---------------------------------|-0-----0-------0---0----|-----0---------------------------|


F|------------------------|---------------------------------|------------------------|
C|------------------------|---------------------------------|------------------------|
G|-0-----0-------0---0----|-----0---8---5---7---5---4---5---|------------------------|
C|------------------------|---------------------------------|-0-----0-------0---0----|


F|------------------------------|------------------------|---------------------------------|
C|------------------------------|------------------------|---------------------------------|
G|-----8---8---8---8---8--------|------------------------|---------------------------------|
C|-------------------------7\\\\|\2-----2-------2---2----|-----2---3---3---3---3---3---3---|


F|------------------------|------------------------------|-----7---9-------------|
C|------------------------|------------------------------|-7-----------10--------|
G|------------------------|------------------------------|-----------------------|
C|-0-----0-------0---0----|---------0-------0---0--------|-----------------------|


F|-----7---9-------------|-4---5---4---2---4---2-----------|--------|--------|--------|
C|-7-----------9---------|-------------------------0---2---|-3------|--------|--------|
G|-----------------------|---------------------------------|--------|-0------|-2------|
C|-----------------------|---------------------------------|--------|--------|--------|


F|---------------------------------|--------|--------|--------|-------------|--------|
C|---------------------------------|--------|--------|--------|-------------|--------|
G|-2---3---2---0---2---0-----------|--------|-0------|-2------|-------------|--------|
C|-------------------------0---2---|-3------|--------|--------|-2-----5-----|-0------|


F|--------------------|-------------|-------------|----------------|-----------------|
C|--------------------|-------------|-------------|----------------|-----------------|
G|----------------3---|-5-----------|-------8-----|-1----------1---|-1-----1---3-----|
C|--------------------|-------0-----|-0-----------|----------------|-----------------|


F|----------------|-----------------|------------------------|------------------------------|
C|----------------|-----------------|------------------------|------------------------------|
G|-5----------5---|-5-----5---3-----|-1----1---1----1---1----|-1---1----1---1---3---3---5---|
C|----------------|-----------------|------------------------|------------------------------|


F|---------------------|------------------------------|---------------------|---------------------------------|
C|---------------------|------------------------------|---------------------|---------------------------------|
G|-5-----5----5---5----|-----5----5---5---8---8---8---|-1-----1----1---1----|-----1---1-----------------------|
C|---------------------|------------------------------|---------------------|-------------5---7---5---3---0---|


F|------------------|-----------------|------------------------|---------------------------------|
C|------------------|-----------------|------------------------|---------------------------------|
G|------------------|-----------------|-1--------1----1---1----|-----1---1---1---1---3---3---5---|
C|-0-----0-----0----|-----0-----0-----|------------------------|---------------------------------|


F|------------------------|---------------------------------|------------------------|
C|------------------------|---------------------------------|------------------------|
G|-5--------5----5---5----|-----5---5---5---5---8---8---8---|-8\\\1----1----1---1----|
C|------------------------|---------------------------------|------------------------|


F|---------------------------------|---------------------------|------------------------|
C|---------------------------------|---------------------------|------------------------|
G|-----1---1---1---1---8---8---8---|-8\\\5---5---5----5---5----|-5---5----5---5----5----|
C|---------------------------------|---------------------------|------------------------|


F|------------------------|---------------------------------|------------------------|
C|------------------------|---------------------------------|------------------------|
G|------------------------|---------8---5---7---5---4---5---|------------------------|
C|-0-----0-------0---0----|-----0---------------------------|-0-----0-------0---0----|


F|---------------------------------|------------------------|---------------------------------|
C|---------------------------------|------------------------|---------------------------------|
G|---------8-------5-------7-------|-0-----0-------0---0----|-----0---8---5---7---5---4---5---|
C|-----0---------------------------|------------------------|---------------------------------|


F|------------------------|---------------------------------|------------------------|
C|------------------------|---------------------------------|------------------------|
G|------------------------|---------8-------5-------7-------|-0-----0-------0---0----|
C|-0-----0-------0---0----|-----0---------------------------|------------------------|


F|---------------------------------|------------------------|------------------------------|
C|---------------------------------|------------------------|------------------------------|
G|-----0---8---5---7---5---4---5---|------------------------|-----8---8---8---8---8--------|
C|---------------------------------|-0-----0-------0---0----|-------------------------7\\\\|


F|------------------------|---------------------------------|------------------------|
C|------------------------|---------------------------------|------------------------|
G|------------------------|---------------------------------|------------------------|
C|\2-----2-------2---2----|-----2---3---3---3---3---3---3---|-0-----0-------0---0----|

                                6/4
F|------------------------------|----------------------------------------------|
C|------------------------------|----------------------5---5-------------------|
G|------------------------------|------------------5-----------6---5---4-------|
C|-0-------0-------0---0--------|-0--------2///5---------------------------6---|


F|----------------------------------------------|
C|----------------------5---4-------------------|
G|------------------5-----------6---5---4-------|
C|-0--------2///5---------------------------6---|


F|----------------------------------------------|----------------------------------------------|
C|----------------------5---5-------------------|----------------------5---4-------------------|
G|------------------5-----------6---5---4-------|------------------5-----------6---5---4-------|
C|-0--------2///5---------------------------6---|-0--------2///5---------------------------6---|

4/4                    6/4
F|---------------------|----------------------------------------------|
C|---------------------|----------------------5---5-------------------|
G|---------------------|------------------5-----------6---5---4-------|
C|-4----7----5----8----|-0--------2///5---------------------------6---|


F|----------------------------------------------|
C|----------------------5---4-------------------|
G|------------------5-----------6---5---4-------|
C|-0--------2///5---------------------------6---|


F|----------------------------------------------|----------------------------------------------|
C|----------------------5---5-------------------|----------------------5---4-------------------|
G|------------------5-----------6---5---4-------|------------------5-----------6---5---4-------|
C|-0--------2///5---------------------------6---|-0--------2///5---------------------------6---|

4/4                    6/4                                               7/8
F|---------------------|-------------------------------------------------|-----------------------------|
C|---------------------|-----------------4-----------4-----------5-------|-----------------------------|
G|---------------------|-5---7---3---5-------5---5-------3---5-------7---|-5---6---3---5---7---3---5---|
C|-4----7----5----8----|-------------------------------------------------|-----------------------------|

11/8                                           6/4
F|---------------------------------------------|-------------------------------------------------|
C|-4-----------4-----------5-------------------|-----------------4-----------4-----------5-------|
G|-----5---5-------3---5-------7---5---6---3---|-5---7---3---5-------5---5-------3---5-------7---|
C|---------------------------------------------|-------------------------------------------------|

7/8                            10/8                                      4/4
F|-----------------------------|-----------------------------------------|---------------------|
C|-----------------------------|-4-----------4-----------5---------------|---------------------|
G|-5---6---3---5---7---3---5---|-----5---5-------3---5-------7---5---6---|---------------------|
C|-----------------------------|-----------------------------------------|-4----7----5----8----|

3/4                        4/4
F|-------------------------|------------------------------|---------------------------|
C|-------------------------|------------------------------|---------------------------|
G|-------------------------|-5-----------4-----------2----|-----1---------------------|
C|-5///7---7///9---9///12--|------------------------------|-----------------6-----5---|


F|------------------------|---------------------------|---------------------------------|
C|------------------------|---------------------------|---------------------------------|
G|------------------------|-5-----------4--------2----|-----1-----------5---4---2---0---|
C|---------3-----2--------|---------------------------|---------------------------------|


F|---------------------------------|------------------------------|---------------------------|
C|---------------------------------|------------------------------|---------------------------|
G|---------5---4---2---0-----------|-5-----------4-----------2----|-----1---------------------|
C|-5---4-------------------5---4---|------------------------------|-----------------6-----5---|


F|------------------------|---------------------------|---------------------------------|
C|------------------------|---------------------------|---------------------------------|
G|------------------------|-5-----------4--------2----|-----1-----------5---4---2---0---|
C|---------3-----2--------|---------------------------|---------------------------------|

                                   6/4
F|---------------------------------|-------------------------------------------------|
C|---------------------------------|-----------------4-----------4-----------5-------|
G|---------5---4---2---0-----------|-5---7---3---5-------5---5-------3---5-------7---|
C|-5---4-------------------5---4---|-------------------------------------------------|

7/8                            11/8                                          
F|-----------------------------|---------------------------------------------|
C|-----------------------------|-4-----------4-----------5-------------------|
G|-5---6---3---5---7---3---5---|-----5---5-------3---5-------7---5---6---3---|
C|-----------------------------|---------------------------------------------|

6/4
F|-------------------------------------------------|
C|-----------------4-----------4-----------5-------|
G|-5---7---3---5-------5---5-------3---5-------7---|
C|-------------------------------------------------|

7/8                            10/8                                      4/4
F|-----------------------------|-----------------------------------------|---------------------|
C|-----------------------------|-4-----------4-----------5---------------|---------------------|
G|-5---6---3---5---7---3---5---|-----5---5-------3---5-------7---5---6---|---------------------|
C|-----------------------------|-----------------------------------------|-4----7----5----8----|

3/4                        4/4
F|-------------------------|-------------|-------------|--------|--------|--------|--------|
C|-------------------------|-------------|-------------|--------|--------|--------|--------|
G|-------------------------|-5-----4-----|-2-----1-----|--------|--------|--------|--------|
C|-5///7---7///9---9///12--|-------------|-------------|--------|--------|--------|--------|


            
            
Suggest correction
Creating personal tab
Creating personal tab
You can edit any tab online and save it as your Personal.

You can edit, replace or remove any tab part or add personal notes – all changes will be seen only by you.

Personal tabs can be accessed anytime from any device, even offline.
Learn more »
comments
print report bad tab
1 comment total.
0 reply
xKrystalBassx 10 Nov 14, 2016 12:41 AM

wow this tab looks perfect!

guest
You may want to rate the tab now too:
select rating
Wanna post a correction for this tab? Suggest correction