Oops, an error
Loading. Please wait.

Sleeping Giant Tab

version 3
version 3

Whole song

Interactive

13,988 views 12 this week
1 commentread comment
1 2 3 4 5
accurate
x 6
add to favorites
launch autoscroll
font size
0
reset
how to read this tab
guitar tuner
Autoscroll
slow
fast
+/-
esc
set tempo
stop
Help us to improve Ultimate-Guitar.com Take our survey!
×
Contributor
danl88 1,179
MASTODON

SLEEPING GIANT

tabbed by dan

TUNING (low to high): CGCFAD

|-------------------15------------------------|
|---------------------------------------------|
|--------------------0---------0--------------|
|----0h2h3----0h2h3------0h2h3---3p2p0----0---|
|----0--------0----------0----------------0---|
|----0--------0----------0----------------0---|
intro

|-------------------15-----------------------------------|------------|
|--------------------------------------------------------|------------|
|--------------------0----------0--------0---------0-----|------------|
|----0h2h3----0h2h3-------0h2h3---3p2p0----0h2h3/5---7---|--7---------|
|----0--------0-----------0------------------------------|----7-------|
|----0--------0-----------0------------------------------|------0-----|
intro cont                                                  harmonics (aco & ele)

repeat, then:

|-------------------------------------------------------------0------|
|------------0--------------0-------------------------------3---3----|
|----------5---5----------4---4---4/5\4--2/4\2----------0--3---------|
|------------------------------------------------0h2h3---------------|
|---0h5h7----------0h5h7---------------------------------------------|
|--------------------------------------------------------------------|
intro part 2  (with fill)

|----------------------------|
|----------------------------|
|---11/12\11-9/11\9----------|
|-------------------7h9h10---|
|----------------------------|
|----------------------------|
fill guitar 2

|--------0---------------------------------------|
|----------1-----------0-------------------------|
|------------2------2----2-------1---------4-----|
|-----2-----------3-----------2-----2---5-----5--|
|---0-----------2--------------------------------|
|---------------------------2---------5----------|
into lead intro part

|---22\------22----17\--------------------------------------------------|
|---------18----18------15--15-17-15-18-15------------------------------|
|-------------------------------------------14vvv15vvv14vvv15vvvv14-----|
|------------------------------------------------------------------15---|
|-----------------------------------------------------------------------|
|-----------------------------------------------------------------------|
lead  with delay    play twice

|---10----10--------------------------------------|------------------------|
|------11----11----11-----------------8-10-11-10--|-10-11-11----10-10------|
|---------------10-----7--9----7-9-7--------------|----------12-------10-9-|
|-------------------------------------------------|------------------------|
|-------------------------------------------------|------------------------|
|-------------------------------------------------|------------------------|
                                                                
|-10----10-------------------------------------|--------------------------|
|----11----11----11----------------8-10-11-10--|-10vv11vv13vv-15-15-15-15-|
|-------------10-----7--9---7-9-7--------------|--------------------------|
|----------------------------------------------|--------------------------|
|----------------------------------------------|--------------------------|
|----------------------------------------------|--------------------------|
                                                          first time
|-------------------------------|-17-----------|-------------15--17--17--|
|-10vvvv11vvvv13vvvv15-15-15-15-|----18-17-15--|--15--17--18--*---*------|
|-------------------------------|--------------|--*---*---*--------------|
|-------------------------------|--------------|-------------------------|
|-------------------------------|--------------|-------------------------|
|-------------------------------|--------------|-------------------------|
second time                     play 4 times            *= trem pick

|--22\----22----17\----------------------------------|
|------18----18------15-15-17-15-18--15vvv15vvv15vv--|
|----------------------------------------------------|
|----------------------------------------------------|
|----------------------------------------------------|
|----------------------------------------------------|
second time end

|--------1-------0----|---------1-------0-----|
|------3-----------3--|-------3-----------3---|
|----2---------2------|-----3---------3-------|
|--0---------0--------|-----------------------|
|---------------------|--1----------1---------|
|---------------------|-----------------------|
rhythm behind lead    play each bar 4 times and repeat

|---0--0---------0----------------------0--0---------0---------------|
|---6--6---------6---9--9\6--8\6--5/6---6--6---------6---9--9--6--8--|
|---7--7---------7--10-10\7--9\7--6/7---7--7---------7--10-10--7--9--|
|---0-----x--x---0----------------------0-----x--x---0---------------|
|---0-----x--x---0----------------------0-----x--x---0---------------|
|---0-----x--x---0----------------------0-----x--x---0---------------|
verses

|---------------------------------------0--0---------0---------------|
|---1---1--------1---9--9\6--8\6--5/6---6--6---------6---------------|
|---2---2--------2--10-10\7--9\7--6/7---7--7---------7---9--9--6--8--|
|---2---2--x--x--2----------------------0-----x--x---0--10-10--7--9--|
|---0---0--x--x--0----------------------0-----x--x---0---------------|
|----------x--x-------------------------0-----x--x---0---------------|
verses continued  play twice

|-----------------------------------------------------------|
|-----------------------------------------------------------|
|-----------------------------------------------------------|
|-10-10-10-10-10-10------2---2--x--x--2--10-10-10-10-10-10--|
|--8--8--8--8--8--8--0---2---2--x--x--2---8--8--8--8--8--8--|
|--------------------0---2---2--x--x--2---------------------|
chorus g1

|-----------------------------------------------------------|
|-----------------------------------------------------------|
|-10-10-10-10-10-10----------------------10-10-10-10-10-10--|
|------------------------2---2--x--x--2---------------------|
|--8--8--8--8--8--8--0---2---2--x--x--2---8--8--8--8--8--8--|
|--------------------0---2---2--x--x--2---------------------|
chorus g2

|----0--0--0--0------------0--0--0--0------------0--0--------|
|----6--6--6--6------------6--6--6--6------------6--6--------|
|----7--7--7--7------------7--7--7--7------------7--7--------|
|----0--0--0--0------------0--0--0--0------------0--0--------|
|----0--0--0--0------------0--0--0--0------------0--0--------|
|----0--0--0--0----0--0----0--0--0--0----0--0----0--0--12\---|
post chorus      PM----|              PM----|

|-------------------------|--------------------|
|-------------------------|--------------------|
|------0------0-----------|--------------------|  repeat both
|-----------0-------------|--------------------|
|----------------6-5-4----|----4---7---5---8---|
|---0---1h5------------6--|----4---7---5---8---|
interlude  play this bar 4 times, then:

|-------------------------------------------------------------------------|
|-----1---------------------------------------------------------0---------|
|--------------------------0------0-------1-----3------3------1-----0-----|
|-0-2---0--4--0-0--4-----0---2-4-------0----2-4---4-4----2-4------4-----0-|
|----------------------3--------------------------------------------------|
|------------------------------------4--------------------------------4---|
bridge part  guitar 1

|-------------------------------------------------------------------------|
|-----1-------------------------------------------------------------------|
|-------------------------0----------------------------------0------------|
|-0-2---0--4--0-0--4----0---2-0-1------0--2---0-4-0-0--4---0---2-0-1----0-|
|---------------------3---------------------3------------3----------------|
|------------------------------------4--------------------------------4---|
bridge part guitar 2

|-----------------------------------------------------------------------|
|-----------------------------------------------------------0-----------|
|------------------------0-------0-------1-----3------3-------1------0--|
|--2---0--4--0-0--4----0---2---4------0----2-4---4-4----2-4-------4-----|
|----3---------------3--------------------------------------------------|
|-----------------------------------4-----------------------------------|
bridge cont guitar 1

|-----------------------------------------------------------------------|
|-----------------------------------------------------------------------|
|------------------------0----------------------------------0-----------|
|--2---0--4--0-0--4----0---2---0-1----0--2---0-4-0-0--4---0---2---0--1--|
|----3---------------3---------------------3------------3---------------|
|-----------------------------------4-----------------------------------|
bridge cont guitar 2

|------------------------------------|
|------------------------------------|
|------------------------------------|
|------------------------------------|
|---4---7---5---8---5/7--7--9--9/12--|
|---4---7---5---8---5/7--7--9--9/12--|
both guitars  bridge end

|---17----17----17----16----16----16----14----14----14----13----13----13----|
|15----15----15----14----14----14----12----12----12----11----11----11----11-|
|---------------------------------------------------------------------------|
|---------------------------------------------------------------------------|
|---------------------------------------------------------------------------|
|---------------------------------------------------------------------------|
guitar 1 outro part 1

|-10-----------------9------------------7-----------------------------------|
|---------------------------------------------------------11----------------|
|---------------------------------------------------------------------------|
|---------------------------------------------------------------------------|
|---------------------------------------------------------------------------|
|---------------------------------------------------------------------------|
guitar 2 outro part 1

|--11---11---11---10---10---10---8---8---8---7---7---7--|
|9----9----9----8----8----8----6---6---6---5---5---5----|
|-------------------------------------------------------|
|-------------------------------------------------------|
|-------------------------------------------------------|
|-------------------------------------------------------|
guitar 1 outro part 1 end 1st time

|-------------------------------------------------------|
|9--------------8---------------------------------------|
|------------------------------10----------9------------|
|-------------------------------------------------------|
|-------------------------------------------------------|
|-------------------------------------------------------|
guitar 2 outro part 1 end 1st time

|--10--9--7-------------10-9-7---------------|
|------------10--8--7----------10-8-7--------|
|-------------------------------------9-7-6--|
|--------------------------------------------|
|--------------------------------------------|
|--------------------------------------------|
both guitars outro part 1 end 2

the rest of the song is just repeats. enjoy!
comments
print report bad tab
1 comment total.
0 reply
MSTClaytonGH 14 wrote on March 5 2010, 04:49 am

the end is not 10-9-7,10-8-7,9-7-6.. It is 10-9,12-11-9,12-10-9 with the commas representing switching between strings.. the at the end runs 10-9,12-11-9,12-10-9-7

I want to post or [tab]
guest
You may want to rate the tab now too:
select rating
Please do not post tabs as comments. Select "correction" instead!