Oops, an error
Loading. Please wait.

Stargasm Tab

version 1
version 1

Whole song

Interactive

7,342 views 30 this week
no commentswrite comment
1 2 3 4 5
accurate
x 11
add to favorites
launch autoscroll
font size
0
reset
how to read this tab
guitar tuner
Autoscroll
slow
fast
+/-
esc
set tempo
stop
Help us to improve Ultimate-Guitar.com Take our survey!
×
Author
Difficulty
Tuning
intermediate
C G C F A D
Mastodon - Stargasm   \m/

Email: Robc321@gmail.com

===This is my first tab I've uploaded to UG.
I saw no other good tabs for this amazing song so I gave it a shot. 
When it comes to the verse and chorus the music has a lot of layers of sound
so some of the tablature is just speculation/an attempt to go with the song, 
it is not perfect.==== 

Tuning: Drop C. (Tune guitar a full step down and the low D string down to a C)



Intro     (Clean, Delay)

D|-----------------------------------------------------------------------------|
A|--------------5h6p5-------------10-8-----------------5h6p5----------------10-|
F|---------------------7-/-9----7--------------------------------7-/-9----7----|
C|------9-/-11----------------8----------------9-/-11-------------------8------|
G|------7-/-9----------------------------------7-/-9---------------------------|
C|-0----------------------------------------0----------------------------------|

D|------------------------------------------------------------------|    
A|-----11-------------------------------10--------------------------|    
F|---------10-------7-9-10-9-7-9------------9--------7-9-10-9-7-9---|(1X)
C|-8-----------8---------------------7----------7-------------------|    
G|------------------------------------------------------------------|    
C|------------------------------------------------------------------|    



(Distortion)

D|------------------------------------------------------------------|
A|-----11--------------------------------10-------------------------|
F|---------10-------7-9-10-9-7-9-------------9-------7-9-10-9-7-9---| (3X)
C|-8-----------8---------------------7----------7-------------------|
G|-8---------------------------------7------------------------------|
C|-8---------------------------------7------------------------------|


D|--------------------------------------------------------------------------|
A|-----11-------------------------------------10----------------------------|
F|---------10--------------------------------------9--------7-9-10-9-7-9----| (1X)
C|-8-----------8---------8---7--5--3-0-----------------7--------------------|
G|-8---------------------8---7--5--3-0--------------------------------------|
C|-8---------------------8---7--5--3-0--------------------------------------|


D|----------------------------------------------------------------|
A|-----11--------------------------------10-----------------------|
F|---------10-------7-9-10-9-7-9-------------9-------7-9-10-9-7-9-| (1X)
C|-8-----------8---------------------7----------7-----------------|
G|-8---------------------------------7----------------------------|
C|-8---------------------------------7----------------------------|


D|-------------------------------------------------------------------|
A|-----11------------------------------------------------------------|
F|---------10--------------------------------------------------------| (1X)
C|-8-----------8---------8---7--5--3-0-------------------------------|
G|-8---------------------8---7--5--3-0-------------------------------|
c|-8---------------------8---7--5--3-0-------------------------------|



Verse (Play through twice)

D|------------------------------------------------------------|
A|------------------------------------------------------------|
F|------------------------------------------------------------| (2X)
C|-------------55555555----------------44444444---------------|
G|------------------------------------------------------------|    
C|-22222222----------------22222222---------------------------|         
pm-xxxxxxxx             pm-xxxxxxxx



D|----------------------------------------|
A|----------------------------------------|
F|----------------------------------------| (1X)
C|-0------0------0----0------0------0-----|
G|-0------0------0----0------0------0-----|
C|-0-0000-0-0000-0-00-0-0000-0-0000-0-----|
     xxxx   xxxx   xx   xxxx   xxxx

D|------------------------------------------------------------|
A|------------------------------------------------------------|
F|------------------------------------------------------------| (2X)
C|-------------55555555----------------44444444---------------|
G|------------------------------------------------------------|    
C|-22222222----------------22222222---------------------------|   
pm-xxxxxxxx             pm-xxxxxxxx


D|----------------------------------------|
A|----------------------------------------|
F|----------------------------------------| (1X)
C|-0------0------0----0------0------0-----|
G|-0------0------0----0------0------0-----|
C|-0-0000-0-0000-0-00-0-0000-0-0000-0-----|
     xxxx   xxxx   xx   xxxx   xxxx



D|-----------------------------------------------|
A|-----------------------------------------------|
F|-----------------------------------------------|(4X)
C|----------------4-4h5-5------------------------|
G|----------5h6----------------------------------|
C|-4-44-44---------------------------------------|



Pre-Chorus

D|---------------------------7-------|
A|--------7---7---------7-10---10----|
F|----7h9---9-------7h9--------------| (4X)
C|-0-------------0-------------------|
G|-0-------------0-------------------|
C|-0-------------0-------------------|





Chorus (Basically the intro again)

D|------------------------------------------------------------------|
A|-----11--------------------------------10-------------------------|
F|---------10-------7-9-10-9-7-9-------------9-------7-9-10-9-7-9---| (3X)
C|-8-----------8---------------------7----------7-------------------|
G|-8---------------------------------7------------------------------|
C|-8---------------------------------7------------------------------|


D|--------------------------------------------------------------------------|
A|-----11-------------------------------------10----------------------------|
F|---------10--------------------------------------9--------7-9-10-9-7-9----| (1X)
C|-8-----------8---------8---7--5--3-0-----------------7--------------------|
G|-8---------------------8---7--5--3-0--------------------------------------|
C|-8---------------------8---7--5--3-0--------------------------------------|


D|----------------------------------------------------------------|
A|-----11--------------------------------10-----------------------|
F|---------10-------7-9-10-9-7-9-------------9-------7-9-10-9-7-9-| (1X)
C|-8-----------8---------------------7----------7-----------------|
G|-8---------------------------------7----------------------------|
C|-8---------------------------------7----------------------------|


D|-------------------------------------------------------------------|
A|-----11------------------------------------------------------------|
F|---------10--------------------------------------------------------| (1X)
C|-8-----------8~--------8---7--5--3-0-------------------------------|
G|-8---------------------8---7--5--3-0-------------------------------|
c|-8---------------------8---7--5--3-0-------------------------------|


************************************

| /   slide up
| \   slide down
| h   hammer-on
| p   pull-off
| ~   vibrato
| +   harmonic
| x   Mute note
| b   Bend
| pb  Pre-bend
| br  Bend release
| pbr Pre-bend release
| brb Bend release bend

************************************
Suggest correction
comments
print report bad tab
guest
You may want to rate the tab now too:
select rating
Please do not post tabs as comments. Select "correction" instead!