Oops, an error
Loading. Please wait.

Thank You For This Bass Tab

version 1
version 1

Whole song

Interactive

197 views 1 this week
no commentswrite comment
1 2 3 4 5
2 more votes to show rating
add to favorites
launch autoscroll
font size
0
reset
guitar tuner
Autoscroll
slow
fast
+/-
esc
set tempo
stop
Help us to improve Ultimate-Guitar.com Take our survey!
×
Author
Tuning
D G C F A D
Thank You For This Bass Tab
By Ashley Griver

One Bar Rest

F|-----------------------------------------------|
C|-------6-------6-------------------------------|
G|----4-------4----------------------------------|
D|--5-------5--------4---5-4--5------------------|  

F|------------------------------------------------------|
C|------------------------------------------------------|
G|------------------------------------------------------|
D|-555555-555555--/1717171717171717171717---------------|  

F|---------------------------------------------|
C|-------6-------6-----------------------------|
G|----4-------4--------------------------------|
D|--5-------5--------4---5-4--5----------------|  x2

F|--------------------------------------|
C|--------------------------------------|
G|--------------------------------------|
D|--222222222222-333333-222222----------|  

F|------------------------------------------------|
C|------------------------------------------------|
G|--55-7-5-8--55-7-5-8--55-7-5-8-10--8--7-8-------|
D|------------------------------------------------|  x2

F|---------------------------------------------------|
C|---------------------------------------------------|
G|-0----0----00----000000---0----00----000000--------|
D|---------------------------------------------------|  

F|------------------------|
C|------------------------|
G|-------00--11--44-------|
D|--22--------------------|  x12


F|--------------4---------|
C|----------6-------------|
G|------0-----------------|
D|---2--------------------|  x4

One Bar Rest

F|------------------------------------------------|
C|------------------------------------------------|
G|--55-7-5-8--55-7-5-8--55-7-5-8-10--8--7-8-------|
D|------------------------------------------------|  x3

F|-------------------------------|
C|-------------------------------|
G|--55-7-5-8--55-7-5-8-----------|
D|-------------------------------|  

F|------------------------------------------------|
C|------------------------------------------------|
G|--55-7-5-8-10--8--7-8-10--8-7--8-10-8-7--8--5~--|
D|------------------------------------------------|  
Suggest correction
Give kudos to tab author, rate the tab!
1 2 3 4 5
comments
print report bad tab
guest
You may want to rate the tab now too:
select rating
Wanna post a correction for this tab? Suggest correction