Oops, an error
Loading. Please wait.

The Czar Bass Tab

version 1
version 1

Whole song

Interactive

4,626 views 1 this week
no commentswrite comment
1 2 3 4 5
please rate
add to favorites
launch autoscroll
font size
0
reset
guitar tuner
Tab Pro tools
  • play this tab
  • loop segment
  • change instrument
  • show fretboard
  • metronome
×
Best way to learn
"The Czar"
Autoscroll
slow
fast
+/-
esc
set tempo
stop
Contributor
Hey i wanted to post this tab because nobody else has.
i know its not 100% correct yet, but im still working on it.
Im pretty confident about part 1 though.
if you have any suggestions or corrections, please contact me!
enjoy!

part 1: Usurper

Verse
    Dont stay      run away
F ---------------------------------------------------|
C ---------------------------------------------------|
G 5--5--7------5----5-7-8------5--5--7----5----------|
D -------------------------------------------6--8--5-|

F --------------------------------------------------------|
C --------------------------------------------------------|
G 5--5--7------5----5-7-8-7-5-----5--5--7-----------------|
D ----------------------------8--------------/6-5-6-5-3-1-|

F -------------------------------------------------------
C -------------------------------------------------------
G 5--5------------------5--------------------------------
D ------6------6----6-8---8-6-5--6--6--5---/6-5-6-5-3--1-

you keep playing over until

         its your own fault       this is what we wanted
F -------------------------------------------------------|
C -------------------------------------------------------|
G --5--5--7-------------8--7--5--5--7---------------5----|
D ----------------------------------------------------6--|

         its your own fault      this is where were living
F -------------------------------------------------------|
C -------------------------------------------------------|
G --5--5--7-------------8--7--5--5--7---------------5----|
D ----------------------------------------------------6--|

       ah-uh    ah-ah
F --------------------------------------------------|
C --------------------------------------------------|
G 5-----7--5----7/8---5----5-7-8---7-8-10---8-10-12-|
D --------------------------------------------------|

Part 2: Escape

rest for a while and then
F --------------------------------|
C --------------------------------|
G 8-8-----8-8-----8-8-----8-8-----|
D ----0-0-----0-0-----0-0-----0-0-| X2

                     by the light of the moon
F -----------------------------------|
C -----------------------------------|
G -----------------------------------|
D 0-0----0-0-0----0-0-0----0-0-0-13--| X5

then
D 13--12--10--9--10--9--7--5

  ride the tides  of  blood    illumanation
F ------------------------------------------|
C ------------------------------------------|
G -8----8----8----7-----7-------------7-7---|
D ------------------------------------------|

   Beuties   sud- den    hand      shattered crown
F ---------------------------------------------------|
C ---------------------------------------------------|
G -8----8----8----/10-----7--------------------7-7---|
D ---------------------------------------------------|

the next part i cant figure out so
any help would be appreciated

then
F ---------------------------------|
C ---------------------------------|
G ----8---7--------8---7---8---5-7-|
D 0-5---5------0-5---5---5---5-----|

F ---------------------------------|
C ---------------------------------|
G ----5---3--------5---3---3-------|
D 0-5---5------0-5---5---5---0-3-3-|


Then
F ------------------------------------|
C ------------------------------------|
G ------10-8-7------3---5---8---5---7-|
D 0---0-----------0---0---0---0---0---|

F ------------------------------------|
C ------------------------------------|
G ------10-8-7------3---5---7--\------|
D 0---0-----------0---0---0-----------|

F ------------------------------------|
C ------------------------------------|
G ------------------------------------|
D 0---0-10-8-7----0-3-0-5-0-8-0-5-0-7-|


F --------------------------|
C --------------------------|
G --------------------------|
D 0---0-10-8-7----0-3-0-5-0-|

then reapeat the whole thing


Part 3: Martyr

honestly im having trouble figurind this part out
help would be appreciated


Part 4: Spiral

this is almost exactally the same as part 1
there are barley any variations


I hope this tab helps. its really a fun song to play.
The rest is coming soon!
comments
We did not receive enough feedback on this tab! Please rate:
print report bad tab
1 2 3 4 5
I want to post or [tab]
guest
You may want to rate the tab now too:
select rating
Please do not post tabs as comments. Select "correction" instead!