Oops, an error
Loading. Please wait.

The Czar Tab

version 1
version 1

Whole song

Interactive

46,513 views 69 this week
3 commentsread comments
1 2 3 4 5
x 9
add to favorites
launch autoscroll
font size
0
reset
how to read this tab
guitar tuner
Autoscroll
slow
fast
+/-
esc
set tempo
stop
Help us to improve Ultimate-Guitar.com Take our survey!
×
Author
Difficulty
Tuning
advanced
D G C F A D
Mastodon's
"The Czar. I. Usurper II. Escape III. Martyr IV. Spiral"
track no.4 from the 2009 album "Crack the Skye"

Tabbed out by beevvy 

This tab is not a final version yet. There are still many mistakes
and I even haven't yet tabbed out all Background Guitar parts (but after
doing Lead Guitar they seem to be easy to work out ;-) ). I'll do it soon.

Please send any feedback, suggestions, corrections,
etc. to my e-mail address (above).

You can also find my Guitar Pro tab of this song here on ultimate-guitar.com.
These are almost exact the same, GP version has a bit more information.

I made this text version for users who don't have GP5.

Here you can download MIDI file if you don't own Guitar Pro 5:
http://rapidshare.com/files/254577099/Mastodon_-_The_Czar_gtr.mid


Tuning: D Standard (down 1 step): DGCFAD

Tempo: synth intro starts with 117, but guitar enters with 124-125,
       and Verse 1 and the rest of the song is 117 again, except Escape,
       which is 121 (for more details look at GP tab)


*** Escape ***

[Intro]

    E  E   E  E   E   E  E   E     E  E   E  E   E   E  E  E  2x
D|---------------12-------------|-----------------------------||
A|-------------------10---------|---------------13------------||
F|*-------10----------------10--|--------10---------10-----9-*||
C|*-0--0------0----------0------|--0--0------0----------0----*||
G|------------------------------|-----------------------------||
D|------------------------------|-----------------------------||

    E  E  E  E  E  E  E  E     E  E  E  E  E  E  E  E
D|--------------------------|--------------0--------0--|
A|--------------5-----------|-----------------5--------|
F|--------7--------7-----7--|--------7-----------------|
C|--0--0-----0--------0-----|--0--0-----0--------0-----|
G|--------------------------|--------------------------|
D|--------------------------|--------------------------|

    E  E  E  E  E  E  E  E     E  E  E  E  E  E  E  E
D|--------------0-----------|--------------0--------0--|
A|-----------------5--------|-----------------5--------|
F|--------7--------------7--|--------7-----------------|
C|--0--0-----0--------0-----|--0--0-----0--------0-----|
G|--------------------------|--------------------------|
D|--------------------------|--------------------------|

Then play again the first two bars twice. And then:

    E  E  E  E  E  E  E  E     E  E  E  E  E  E  E  E
D|--------------------------|--------------8-----------|
A|--------------9-----------|-----------------9--------|
F|--------7--------7-----7--|--------7--------------7--|
C|--0--0-----0--------0-----|--0--0-----0--------0-----|
G|--------------------------|--------------------------|
D|--------------------------|--------------------------|

    E  E  E  E  E  E  E  E     E  E  E  E  E  E  E  E
D|--------------------------|--------------8--------8--|
A|--------------9-----------|-----------------9--------|
F|--------7--------7-----7--|--------7-----------------|
C|--0--0-----0--------0-----|--0--0-----0--------0-----|
G|--------------------------|--------------------------|
D|--------------------------|--------------------------|

[Verse 1]

    E  E   E  E   E   E  E   E     E  E   E  E   E   E  E  E  4x
D|---------------12-------------|-----------------------------||
A|-------------------10---------|---------------13------------||
F|*-------10----------------10--|--------10---------10-----9-*||
C|*-0--0------0----------0------|--0--0------0----------0----*||
G|------------------------------|-----------------------------||
D|------------------------------|-----------------------------||


    E  E  E  E  E  E  E  E     E  E  E  E  E  E  E  E  2x
D|--------------------------|--------------8-----------||
A|--------------9-----------|-----------------9--------||
F|*-------7--------7-----7--|--------7--------------7-*||
C|*-0--0-----0--------0-----|--0--0-----0--------0----*||
G|--------------------------|--------------------------||
D|--------------------------|--------------------------||

Actually here begins the verse.
Play again the first two bars (from Verse 1) twice. And then:

    E  E  E  E  E  E  E  E     E  E  E  E  E  E  E  E  2x
D|--------------------------|--------------0--------0--||
A|--------------5-----------|-----------------5--------||
F|*-------7--------7-----7--|--------7----------------*||
C|*-0--0-----0--------0-----|--0--0-----0--------0----*||
G|--------------------------|--------------------------||
D|--------------------------|--------------------------||

Then play the first two bars twice.
Then 3rd and 4th, twice.
Then 1st and 2nd, twice.
Then 5th and 6th, twice.

Lead guitar sometimes plays the following while the first bar
of the above is being played:

           Let ring-----|
  H         E   E   E   E
-----------17--------------|
---------------15----------|
-------------------14------|
-----------------------15--|
---------------------------|
---------------------------|

[Verse 2]

    Q    E  E   E  Q      E     E   H          E  E   E
D|------------------------8--|---------------------------|
A|---------------------------|---------------------------|
F|*------9-----10h-9---------|--9h-10-------------9--10--|
C|*---------7----------------|-----------------7---------|
G|--0------------------------|---------------------------|
D|---------------------------|---------------------------|

    E   E  E  E  E  Q     E     E  Q       E  E  E    E  E  2x
D|------------------------3--|--0-------------0-------------||
A|---------------------------|-----------3s5-----5----------||
F|--S------4-----5h-4--------|-----5----------------4h5--4-*||
C|--S---2-----2--------------|-----------------------------*||
G|--0------------------------|------------------------------||
D|---------------------------|------------------------------||

[Bridge 1]

    Q    Q    E   Q     E     E  E  E  E  E  E  E  E
D|-------------------------|--------------------------|
A|-------------------------|--------------------------|
F|-------5----4h--5-----4--|--------4-----4--4-----4--|
C|-------------------------|-----3-----3--------3-----|
G|--0----------------------|--0-----------------------|
D|-------------------------|--------------------------|

    Q    E   E  E  E  Q       Q    E   E  E  E  E  E
D|--------------0----------|--------------0-----------|
A|-------3h--5-----5--3----|-------3h--5-----5--3--5--|
F|-------------------------|--------------------------|
C|-------------------------|--------------------------|
G|-------------------------|--------------------------|
D|-------------------------|--------------------------|

Then go back to Verse 1. Second time you play Verse 2,
omit two last bars, and play this:

    Q    E   E  E  E  E  E     E  E  E  E   E   E  E  E     E  E  E
D|--------------------------|-----------------------------|----------
A|--------------------------|--6-----5-------------10-----|-12-------
F|--------------------4--4--|-----5-----5s--9h--12-----9--|--------9-
C|-------5p--4--5--5--------|-----------------------------|-----9----
G|--0-----------------------|-----------------------------|----------
D|--------------------------|-----------------------------|----------


*** Escape ***

** Riff 1 **

                           PM--|    PM--|    PM--|
 Q    E   E    E     Q     S  S  E  S  S  E  S  S     E
------------------|--------------------------------------|
------------------|--------------------------------------|
---------12s--10--|--9~----------5--------7---------8s10-|
-2----2--12s--10--|--9~----------5--------7---------8s10-|
-2----2--10s---8--|--7~----------3--------5---------5s8--|
-0----0-----------|--------0--0-----0--0-----0--0--------|

  PM--|    PM--|      PM--------|
  S  S  E  S  S    E  S  S  S  S   E    E
-------------------------------------------|
-------------------------------------------|
--------7--------7s9--------------12s--10--|
--------7--------7s9--------------12s--10--|
--------5--------5s7--------------10s---8--|
--0--0-----0--0-------0--0--0--0-----------|

        PM--|    PM--|    PM--|
  Q     S  S  E  S  S  E  S  S    E     E  E  E  Q    E   E    E
-------------------------------------|----------------------------|
-------------------------------------|----------------------------|
--9~----------5--------7--------8s9--|-----9--9-------------------|
--9~----------5--------7--------8s9--|-----9--9--2----2--12s--10--|
--7~----------3--------5--------5s7--|-----7--7--2----2--10s---8--|
--------0--0-----0--0-----0--0-------|-----------0----0--10s---8--|

        PM--|    PM--|    PM--|
  Q     S  S  E  S  S  E  S  S     E
--------------------------------------|
--------------------------------------|
--------------------------------------|
--9~----------5--------7---------8s10-|
--7~----------3--------5---------5s8--|
--7~----0--0--3--0--0--5--0--0---5s8--|

  PM--|    PM--|      PM--------|
  S  S  E  S  S    E  S  S  S  S   E    E
-------------------------------------------|
-------------------------------------------|
-------------------------------------------|
--------7--------7s9--------------12s--10--|
--------5--------5s7--------------10s---8--|
--0--0--5--0--0--5s7--0--0--0--0--10s---8--|

        PM--|    PM--|    PM--|
  Q     S  S  E  S  S  E  S  S     E
--------------------------------------|
--------------------------------------|
---------------------------------8s10-|
--9~----------5--------7---------8s10-|
--7~----------3--------5---------5s8--|
--7~----0--0--3--0--0--5--0--0--------|

         PM--------|          PM--------|
  E   E  S  S  S  S    E   E  S  S  S  S
------------------------------------------|
------------------------------------------|
-----10--------------/10--10--------------|
-----10--------------/10--10--------------|
------8---------------/8---8--------------|
---------0--0--0--0-----------0--0--0--0--|

           PM--------|          PM--------|
    E   E  S  S  S  S    E   E  S  S  S  S  3x
--------------------------------------------||
--------------------------------------------||
*-/10--10--------------/10--10-------------*||
*-/10--10--------------/10--10-------------*||
---/8---8---------------/8---8--------------||
-----------0--0--0--0-----------0--0--0--0--||

[Verse 3]

           PM--|        PM--------------|
    E.  S  S  S  E.  S  S  S  S  S  S  S
|-----------------------------------------|
|-----------------------------------------|
|*----------------------------------------|
|*----------------------------------------|
|-----------------------------------------|
|---0---0--0--0--0---0--0--0--0--0--0--0--|

      PM                      PM
    S S   S   S  S  S   S E   S  S  S S  S S   S
D|-----------------------------------------------|
A|-----------------------------------------8h-10-|
F|------------------------------------7h-9-------|
C|------------------------9---7--7h-9------------|
G|--------------10s-9h-10------------------------|
D|----0--10h-12----------------------------------|

         PM--|        PM--------------|
  E.  S  S  S  E.  S  S  S  S  S  S  S
----------------------------------------|
----------------------------------------|
----------------------------------------|
----------------------------------------|
----------------------------------------|
--0---0--0--0--0---0--0--0--0--0--0--0--|

      PM                      PM
    S S   S   S  S  S   S E   S  S  S S  S S  S  2x
D|-----------------------------------------------||
A|-----------------------------------------5h-7--||
F|------------------------------------5h-7------*||
C|------------------------9---7--7h-9-----------*||
G|--------------10s-9h-10------------------------||
D|----0--10h-12----------------------------------||

Then play the first two bars from Verse 3. And then:

                 AH        AH
     S   S  S  S S  S S  S S  S S S S S S  S
D|-------------------------------------------|
A|--12p-10s-8----8s-7------------------------|
F|------------11------9-11-9s-7---9---7------|
C|------------------------------9---9---9s-7-|
G|-------------------------------------------|
D|-------------------------------------------|

          PM          AH     PM   PM
    S S S S  S S  S S S  S S S  S S  S  S
D|----------------------------------------|
A|----------------------------------------|
F|------------------7---------------------|
C|--5---7-7--5-7s-9---9s-7-5----7----5s-6-|
G|----7----------------------7----7-------|
D|----------------------------------------|

[Verse 4]

        PM--|     PM--|    PM--|     PM----------|       PM-----|
  E.  S S  S   E  S  S  E  S  S  E   S S E  E  S S E  E  S S S S
-----------------------------------|-----------------------------|
-----------------------------------|-----------------------------|
-10--10-------10--------9--------9-|---------------9--9----------|
-----------------------------------|---------------9--9----------|
--8---8--------8--------7--------7-|---------------7--7----------|
--------0--0------0--0-----0--0----|-0-0-0--0--0-0-------0-0-0-0-|

         PM--|     PM--|            PM----------|       PM----|
  E.   S S  S   E  S  S   Q     E   S S E  E  S S E  E  S S S S
----------------------------------|-----------------------------|
----------------------------------|-----------------------------|
-10---10-------10--------12S----9-|---------------9--9----------|
----------------------------------|-----------------------------|
--8----8--------8--------10S----7-|---------------7--7----------|
---------0--0------0--0-----------|-0-0-0--0--0-0-------0-0-0-0-|

         PM--|     PM--|    PM--|     PM----------|       PM----|
  E.   S S  S   E  S  S  E  S  S  E   S S E  E  S S E  E  S S S S
------------------------------------|-----------------------------|
------------------------------------|-----------------------------|
-10---10-------10--------9--------9-|---------------9--9----------|
------------------------------------|-----------------------------|
--8----8--------8--------7--------7-|---------------7--7----------|
---------0--0------0--0-----0--0----|-0-0-0--0--0-0-------0-0-0-0-|

          PM--|     PM--|              PM--------------|
   E.   S S  S   E  S  S   Q     E     S  S  E  E  S  S  E  E  Q
------------------------------------|------------------------------|
------------------------------------|------------------------------|
--10---10-------10--------13S----9--|--------------------9--9------|
------------------------------------|------------------------------|
---8----8--------8--------11S----7--|--------------------7--7------|
----------0--0------0--0------------|--0--0--0--0--0--0--------x\*-|

*hand slide

[Bridge 2]

It was a very hard part to work out.
I hope left guitar plays something like this:

    E  S E  S S  S S S S S E  E      E    Q.      S  S S S S S S S
D|--------------------------------|--------------------7-----7-----|
A|-----------------5-6--------6~--|--~\-----------3-/5-----0-----0-|
F|------------0h-4-----4---4------|----------------------4-----4---|
C|----------6------------6--------|-------0~-----------------------|
G|-------7------------------------|--------------------------------|
D|--0--5--------------------------|--------------------------------|

    E  S E  S S  S S S S S S S E      E.   S S S S S E  E  S S E
D|---------------------------------|---------7-----7-\------------|
A|-----------------5-6-----5---6~--|--6~--/5-----0------3--5-5-3--|
F|------------0h-4-----4-----4-----|-----------4-----\------------|
C|----------6------------6---------|------------------------------|
G|-------7-------------------------|------------------------------|
D|--0--5---------------------------|------------------------------|

    S. S. S S S S  S S S S S S S E      Q    Q+S    S S S S S S S
D|-----------------------------------|----------------7-----7---7-|
A|-------------------5-6-----5---6~--|--~----3~----/5-----0---0---|
F|--------------0h-4-----4-----4-----|------------------4---------|
C|------------6------------6---------|-------0--------------------|
G|--------7-5------------------------|----------------------------|
D|--0--5-----------------------------|----------------------------|

                     AH
    E  S E  S S  S S S S S S S E      E.    E  S S S E  E  E  E
D|---------------------------------|-----------7---7-\-----------|
A|-----------------5-6-----5---6~--|--6~---/5-----------0--5--5--|
F|------------0h-4-----4-----4-----|-------------4---\-----------|
C|----------6------------6---------|-----------------------------|
G|-------7-------------------------|-----------------------------|
D|--0--5---------------------------|-----------------------------|

and right one:

           PM--|
    E  S S T  T  S S  S S S S S S S E      Q    Q+S    S S S S S S S
D|--------------------------------------|----------------7-----7-----|
A|----------------------5-6-----5---6~--|--~----3~----/5-----5-----5-|
F|-----------------0h-4-----4-----4-----|------------------4-----4---|
C|---------------6------------6---------|----------------------------|
G|-------7-7--5-------------------------|----------------------------|
D|--0--5--------------------------------|----------------------------|

           PM--|
    E  S S T  T  S S  S S  S S S S S E      E.   S S S S S E  E  E  E
D|---------------------------------------|---------7-----7-\-----------|
A|----------------------5h-6-----5---6~--|--~---/5-----0------3--5--5--|
F|-----------------0h-4------4-----4-----|-----------4-----\-----------|
C|---------------6-------------6---------|-----------------------------|
G|-------7-7--5--------------------------|-----------------------------|
D|--0--5---------------------------------|-----------------------------|

           PM--|
    E  S S T  T  S S  S S  S S S S S E      Q     Q     S  S S S S S S S
D|---------------------------------------|-------------------7-----7-----|
A|----------------------5h-6-----5---6~--|--~\----------3-/5-----0-----0-|
F|-----------------0h-4------4-----4-----|---------------------4-----4---|
C|---------------6-------------6---------|--------0~---------------------|
G|-------7-7--5--------------------------|-------------------------------|
D|--0--5---------------------------------|-------------------------------|

           PM--|
    E  S S T  T  S S  S S  S S S S S E      E.    E  S S S S S E  E  E
D|--0------------------------------------|-----------7-----7-\----------|
A|----------------------5h-6-----5---6~--|--6~---/5------0-----0--5--5--|
F|-----------------0h-4------4-----4-----|-------------4-----\----------|
C|---------------6-------------6---------|------------------------------|
G|-------7-7--5--------------------------|------------------------------|
D|-----5---------------------------------|------------------------------|

[Bridge 3]

                 AH
     E  E  E  E  Q     E  E     E  E  E  E  E  E  E  E
D|---------------------------|--------------------------|
A|---------------------------|--------------------------|
F|*--------------------------|--------------------------|
C|*--------------------------|--------------------------|
G|---------8-----7~----------|--8-----7-----8--0--5--7--|
D|---0--5-----5--------0--5--|-----5-----5--------------|

                AH
    E  E  E  E  Q     E  E     E  E  E  E  E  E  E  E   2x
D|--------------------------|---------------------------||
A|--------------------------|---------------------------||
F|--------------------------|--------------------------*||
C|--------------------------|--------------------------*||
G|--------5-----3~----------|--5-----3-----3-----5--5---||
D|--0--5-----5--------0--5--|-----5-----5-----0--3--3---||

Then play something like this:

    E  E   E    E
D|-----------------|
A|-----------------|
F|--------12s--10--|
C|--2--2--12s--10--|
G|--2--2--10s---8--|
D|--0--0-----------|

And go back to Riff 1 (starting form 2nd bar of course).

Second time you play, after Bridge 2 go here:

[Bridge 4]

          PM--|        PM--|          PM--|
    E.  S S  S  E.   S S  S  E.  S    S  S  Q    E  E  E  E  E
|----------------------------------|----------------------------|
|----------------------------------|----------------------------|
|*---------------------------------|----------------------------|
|*--5---5-------6~---6-------7---5-|--------5----4--4--2--2--4--|
|---7---7-------7~---7-------8---7-|--------7----5--5--3--3--5--|
|---------0--0---------0--0--------|--0--0----------------------|

          PM--|  1/2    PM--|         PM--|    PM--|
   E.   S S  S  E.    S S  S  E.  S   S  S  E  S  S  E  E  E    E  E
------------------------------------|---------------------------------||
------------------------------------|---------------------------------||
---------------13br--13-------------|--------------------------------*||
--/9----9---------------------7---5-|-------7~-------5--7--5S--10--9-*||
-/10---10---------------------8---7-|-------5~-------3--5--3S---8--7--||
----------0--0----------0--0--------|-0--0-----0--0-------------------||

Then play A5 (actually it's G5) and wait for about 8 bars.


*** Martyr ***

[Bridge 5]

              |---3---|
    E.   E.   E   E  E  Q    E     E   E   E   E   E  E   E   E
|-------------------------------|----------------------------10--|
|-------------------------------|-----------------10-----13------|
|*-----------10------9------10--|---------12---------------------|
|*------10----------------------|-----10------10-----------------|
|---0------------12-------------|--0------------------0----------|
|-------------------------------|--------------------------------|

    E  E  E  E  Q.      E     E  E  E  E  E  E  E  E
D|-------------------------|---------------------------||
A|-------------------------|---------------------------||
F|--------2-----4~---------|--2-----4-----5--4--2--4--*||
C|-----3-----3-------------|--------------------------*||
G|--0-------------------0--|-----0-----0---------------||
D|-------------------------|---------------------------||

[Bridge 3]

                                play harmonics only 2nd time
                                AH    AH    AH
     E  E  E  E  Q     E  E     E  E  E  E  E  E  E  E
D|---------------------------|--------------------------|
A|---------------------------|--------------------------|
F|*--------------------------|--------------------------|
C|*--------------------------|--------------------------|
G|---------8-----7~----------|--8-----7-----8--0--5--7--|
D|---0--5-----5--------0--5--|-----5-----5--------------|

    E  E  E  E  Q     E  E     E  E  E  E  E  E  E  E
D|--------------------------|---------------------------||
A|--------------------------|---------------------------||
F|--------------------------|--------------------------*||
C|--------------------------|--------------------------*||
G|--------5-----3~----------|--5-----3-----3-----5--5---||
D|--0--5-----5--------0--5--|-----5-----5-----0--3--3---||

** Verse 5 and Solo **

My interpretation of left guitar part (he plays it a bit differently):

             ^
    H        H           Q    E  E  Q    E  E
D|-----------0--------|----------0----------0--|
A|-----------1--------|----------0----------0--|
F|*-2--------2--------|--4----4-----5----5-----|
C|*-2--------2--------|--4----4-----5----5-----|
G|--0--------0--------|--2----2-----3----3-----|
D|--------------------|------------------------|

    H        Q    E  E     S  S  S  S E  E  E   E  E   E  8x
D|-------------------0--|---------------------------------||
A|-------------------8--|---------------------------------||
F|--9--------9----9-----|--------------------------------*||
C|--9--------9----9-----|--2h-3p-2p-0--------------0h--2-*||
G|--7--------7----7-----|-------------3--5--2h--3---------||
D|----------------------|---------------------------------||

And right one:

    W                   H        H
D|-------------------|--------------------|
A|-------------------|--------------------|
F|*-2----------------|--4--------5--------|
C|*-2----------------|--4--------5--------|
G|--0----------------|--2--------3--------|
D|-------------------|--------------------|

    W                   S  S  S  S E  E  E   E  E  E  8x
D|-------------------|--------------------------------||
A|-------------------|--------------------------------||
F|--4----------------|-------------------------------*||
C|--2----------------|--2h-3p-2p-0--------------0--2-*||
G|--2----------------|-------------3--5--2h--3--------||
D|--0----------------|--------------------------------||

[Solo]

Extremely hard to play!
I didn't wrote the durations here because they're too complicated.
If you want to see them, look at my Guitar Pro version of this tab.

Start playing the following when 4th bar is being played 2nd time:

D|-----------------/12--15-12----12----12--------|
A|------------10--------------13----15----13-15--|
F|---------12------------------------------------|
C|--------x--------------------------------------|
G|--/14--x---------------------------------------|
D|-----------------------------------------------|

      1               1
D|--------------------------------|--------------------|-------|
A|--15b--15s-13-15--15b-----------|--------------------|-------|
F|--------------------------------|--------------------|-------|
C|--------------------------------|--------------------|-------|
G|--------------------------------|--------------------|-------|
D|--------------------------------|--------------------|-------|

                           1
D|-------------------------------|--------------------|-------|-------|
A|-------------------------------|--------------------|-------|-------|
F|-------------------------------|--------------------|-------|-------|
C|--\12--12--10h-12--10----------|--7-----------------|-------|-------|
G|-----------------------10br----|--------------------|-------|-------|
D|-------------------------------|--------------------|-------|-------|

D|-------------------------------------------|---------------------------------|
A|-------------------------------------------|---------------------------------|
F|-------------12h-14p-12s-9h-12p-9s-8h-9p-8-|--7s-5---5s-7s-5~--------------0-|
C|-------------------------------------------|-------7-------------------------|
G|-------------------------------------------|---------------------------------|
D|-------------------------------------------|---------------------------------|

     1                         PM                         PM
D|-------5---------------------------------------------------|
A|-----5---5-8p-5-----8------8-------------------------------|
F|--7b------------7-----7------9--8p-7s-5---7---5h-7p-5------|
C|----------------------------------------7---7-----------7--|
G|-----------------------------------------------------------|
D|-----------------------------------------------------------|

                          PM
D|------------------------------|------------------------------------------------|
A|------------------------------|------------------------------------------------|
F|--4~----------4h-5p-4---4-----|---------------------------------------------5--|
C|----------------------7----7h-|--5---7---5-----------------5-----5h-7p-5h-7----|
G|------------------------------|----7---7---7s-5-3-----0s-7---7-7---------------|
D|------------------------------|-------------------5-0--------------------------|

D|-------------------------------------------------------|
A|-------------------------------------5h-8p-x---5h-8p-5-|
F|---------5------------5----5h-7p-5---------------------|
C|--7-5h-7--------5-7------------------------------------|
G|-------------/7-----7----------------------------------|
D|-----------8-------------------------------------------|

       1/2                                             1
      PM--|           PM--|      PM
D|--5-----------------------8-------------------12-------12-17p12-12-----17--|
A|----8b-5----8h10p8-----8----10-8--12h15p12-15------15b-------------15------|
F|--------------------9------------------------------------------------------|
C|---------------------------------------------------------------------------|
G|---------------------------------------------------------------------------|
D|---------------------------------------------------------------------------|

D|----12-15p12--17p14p12--12-15p12--17p14p12--12-15p12--17p14p12--12-15p12----|
A|--15--------15--------15--------15--------15--------15--------15--------15--|
F|----------------------------------------------------------------------------|
C|----------------------------------------------------------------------------|
G|----------------------------------------------------------------------------|
D|----------------------------------------------------------------------------|

                                                           1/2
D|--17p14p12--12-15p12--17p14p12--12-15p12--17p14p12--12-----20p17--20-17--|
A|----------15--------15--------15--------15--------15---17b------17-------|
F|-------------------------------------------------------------------------|
C|-------------------------------------------------------------------------|
G|-------------------------------------------------------------------------|
D|-------------------------------------------------------------------------|

D|-------20p17-17-----20p17-17-----20-17-----20p17-17-----20p17-17-----20p17-17--|
A|--17h18----17--17h18----17--17h18-17--17h18----17--17h18----17--17h18----17----|
F|-------------------------------------------------------------------------------|
C|-------------------------------------------------------------------------------|
G|-------------------------------------------------------------------------------|
D|-------------------------------------------------------------------------------|

                                                                1
D|----20p17--17--20p17--17--20p17--20p17--20p17--20p17--20p17-20b--|
A|--17-----17--17-----17--17-----17-----17-----17-----17-----------|
F|-----------------------------------------------------------------|
C|-----------------------------------------------------------------|
G|-----------------------------------------------------------------|
D|-----------------------------------------------------------------|

                  1/2            1
D|--20--22--20--22br--20-------------|
A|-----------------------20-22-20br--|
F|-----------------------------------|
C|-----------------------------------|
G|-----------------------------------|
D|-----------------------------------|

            1/2
D|-------------------------------------------------------------------|
A|--17-17h19b-h-17----17---------------------------------------------|
F|-----------------20----20s-19-17----19----17h-19~-17-17-19S--12~---|
C|---------------------------------19----19--------------------------|
G|-------------------------------------------------------------------|
D|-------------------------------------------------------------------|

D|----------------------------------------12-15-12----12-12-|
A|-----12-13-12h-13p-12----12----12----13----------13----15-|
F|--14------------------14----14----14----------------------|
C|----------------------------------------------------------|
G|----------------------------------------------------------|
D|----------------------------------------------------------|

                     1
D|-------------------------------------------------------------------------|
A|----13p-12----12---------------------------------------------------------|
F|-----------14----14b-12----14----12--------------------------------------|
C|------------------------14----14----14s-12-10----12----12h-10----10------|
G|----------------------------------------------12----12--------12----12\--|
D|-------------------------------------------------------------------------|

     1             1/2            1                                     1    1
D|------------------------------------|--5-------------------------------------|
A|----------------------------------5-|----8p-5----5-8p-5----8--10-8--10b--10b-|
F|----------------5b--7-5---7--5-7b---|---------7---------7--------------------|
C|----------5-7-5---------7-----------|----------------------------------------|
G|--5b-h-7----------------------------|----------------------------------------|
D|------------------------------------|----------------------------------------|

Then play Bridge 5.

And then:

    E   E  E  E  E  E  E  E     E  E  E   E  E  E  Q
D|---------------------------|---------------0--3--0----|
A|------------0--------------|--0--1--3s--5-------------|
F|------------------0-----2--|--------------------------|
C|--0h--2--------2-----2-----|--------------------------|
G|---------------------------|--------------------------|
D|---------1-----------------|--------------------------|

    E  E  E  E  E  E  E  E     E  E   E  E  E  E  E  E
D|-----------0--------------|--1--3s--5--0--8--5--0--5--|
A|-----------------------3--|---------------------------|
F|-----2--------2--0--2-----|---------------------------|
C|--0-----------------------|---------------------------|
G|--------1-----------------|---------------------------|
D|--------------------------|---------------------------|


*** Spiral ***

Play some variation of Verse 1. Look at GP tab for details.
Then play Verse 2 and Bridge 1 like it would be played 2nd time.
And finish the song with E5 (actually D5).



Have a good fun!

I'd really like to see someone playing from this tab on YouTube,
especially the solo - most parts are simply too hard for me to play them
along with Hinds ;-) .


(Sorry for my imperfect English.)
Duration Legend
---------------
W - whole
H - half
Q - quarter
E - 8th
S - 16th
T - 32nd
. - note dotted
|-n-|  - n-tuplets


Tablature Legend
----------------
AH - artificial harmonic
h - hammer on
p - pull off
b - bend*
br - bendRelease*
S - shift slide
s - legato slide
/ -  slide into from below or out of upwards
\ -  slide into from above or out of downwards
~ - vibrato
^ - brush up

* - number above bends mean how big they are (1 means 1 tone)


************************************

| *   Natural harmonic
| h   Hammer-on
| p   Pull-off
| ~   Vibrato
| /   Slide up
| x   Dead note
| PM  Palm mute
| \   Slide down
| br  Bend release
| b   Bend 

************************************
Suggest correction
comments
print report bad tab
3 comments total.
0 reply
Sebariath 31 Nov 11, 2009 09:20 PM

Sounds good, but i find it easier in the intro to play open d instead of playin on the ninth fret

0 reply
bjodne 199 Mar 31, 2010 04:40 PM

Very nice.

0 reply
softbumcheese 41 Feb 13, 2013 08:32 AM

At the beginning of Bridge 5 you should go like this

|-----1-0----1|----3---5----8/10|
|---1---------|--1---1----------|
|------2------|-----------------|
|-------------|-----------------|
|-0-----------|0----------0-----|
|-------------|-----------------|

guest
You may want to rate the tab now too:
select rating
Wanna post a correction for this tab? Suggest correction