Oops, an error
Loading. Please wait.

The Last Baron Tab

version 1
version 1

Intro

Whole song

Interactive

3,656 views 3 this week
no commentswrite comment
1 2 3 4 5
please rate
add to favorites
launch autoscroll
font size
0
reset
how to read this tab
guitar tuner
Tab Pro tools
  • play this tab
  • loop segment
  • change instrument
  • show fretboard
  • metronome
×
Best way to learn
"The Last Baron"
Autoscroll
slow
fast
+/-
esc
set tempo
stop
Difficulty
Tuning
advanced
C G C F A D
The last baron
Mastodon
En este sitio he encontrado muchas tab que me han sido de gran ayuda, asi q quiero
regresar algo al sitio, esta tab no esta completa, solo es la parte intermedia de la
cancion,aqui estan la mayoria de notas que necesitan para la cancion,escuchen la cancion 
para saber los tiempos, porfavor si alguien tiene la otra parte de la cancion subala al sitio
gracias suerte y que la disfruten :)

Guitarra 1 (Brent)
D|-----------------------------|--------------------------|
A|-----------------------------|--------------------------|
F|--101010-99999999------------|-101010-12--99999999------|
C|--xxxx---xxxxxxxx------------|---xxxx-x---xxxxxxxx------|
G|--8888---77777777------------|---8888/10--77777777------|
C|-----------------------------|--------------------------|

Guitarra 2 (Bill)
D|----------------------------------------------------------------------|
A|----------------------------------------------------------------------|
F|-101010--13131313--14141414----9999-----------------------------------|
C|-xxxx----x-x-x-x---x-x-x-x-----xxxx-----------------------------------|
G|-8888----11111111--12121212----7777----2------------------------------|
C|----------------------------------------------------------------------|

Guitarra 1 y 2
D|-----------------------------|--------------------------|
A|-----------------------------|--------------------------|
F|-----------------------------|--------------------------|
C|---10-7-9-10107-9-7----------|--------------------------|
G|----8-5-7-8-8-5-7-5----------|--85788575----------------|
C|-----------------------------|--------------------------|

D|-----------------------------|--------------------------|
A|-----------------------------|--------------------------|
F|-----------------------------|--------------------------|
C|-----------------------------|--------------------------|
G|-----------------------------|--------------------------|
C|----85788575-----------------|---30233020---------------|

Guitarra 1 y 2
D|-----------------------------|--------------------------|
A|-----------------------------|--------------------------|
F|-10--------------------------|-12-----------------------|
C|-x---------------------------|-x------------------------|
G|-8--------0h1p0--------------|-10-------0h1p0-----------|
C|----0h1h3-------0h1p0--------|----0h1h3-------0h1p0-----|

D|-----------------------------|--------------------------|
A|-----------------------------|--------------------------|
F|-9---------------------------|-7------------------------|
C|-x---------------------------|-x------------------------|
G|-7--------0h1p0--------------|-5--------0h1p0-----------|
C|----0h1h3-------0h1p0--------|----0h1h3-------0h1p0-----|

Guitarra 1
D|----------------------------------------------------------------------|
A|----------------------------------------------------------------------|
F|--7-6-------6-7-6------7-6--------------------------------------------|
C|------8-7-8-------8-7-------8-7-8/10--4-------------------------------|
G|----------------------------------------------------------------------|
C|----------------------------------------------------------------------|


D|----------------------------------------------------------------------|
A|----------------------------------------------------------------------|
F|--7-6-------6-7-6------7-6--------------------------------------------|
C|------8-7-8-------8-7-------8-7-8/10--4-------------------------------|
G|----------------------------------------------------------------------|
C|----------------------------------------------------------------------|

Guitarra 2
D|----------------------------------------------------------------------|
A|----------------------------------------------------------------------|
F|--7-6-------6-7-6------7-6--------------------------------------------|
C|------8-7-8-------8-7-------8-7-8/10--4-------------------------------|
G|----------------------------------------------------------------------|
C|----------------------------------------------------------------------|


D|--10-9-----------9-10-9--------10-9-----------------------------------|
A|-------11-10-11---------10-11--------11-10-11/13----------------------|
F|-------------------------------------------------11-------------------|
C|----------------------------------------------------------------------|
G|----------------------------------------------------------------------|
C|----------------------------------------------------------------------|

Guitarra 1 y 2
D|---|-----------------------------|---------------------------|
A|---|-----------------------------|----------------------4-3--|
F|---|---------------0h2p0---------|---------------0h3p0-------|
C|-4-|---------0h4h5--------4h5-4--|--------0h4h5--------------|
G|---|-----------------------------|---------------------------|
C|---|--0-3/5----------------------|--0-3/5--------------------|

D|------------------------------|----------------------------|
A|------------------------------|---------------------5-6----|
F|------------------------------|------------------5------7--|
C|------------3-2---------2-----|------------3—5-7---7-------|
G|------1—3-5-----3-5-3-5---3---|------1—3-5-----------------|
C|-12-0-1-----------------------|-12-0-1---------------------|

aqui esta el solo progresivo, la verdad no supe como anotar los hammer on y los pull
off, pero aqui estan todas las notas
Guitarra 1
D|--------------------------8-----------11--|-----------------|
A|-------4---------8—8h9h10----13p12p11-----|-/8-8-8-8-8------|
F|-4h5h6----10p9p8--------------------------|-----------------|
C|------------------------------------------|-----------------|
G|------------------------------------------|-----------------|
C|------------------------------------------|-----------------|

D|----------------------------------------------------|
A|-------5--------------------------------------------|
F|-5h6h7---7p6p5---65----5----------------------------|
C|---------------7----76---765-765---65----5----------|
G|---------------------------------7----76----765--3--|
C|----------------------------------------------------|

D|------------------------------------------------------10h11h10---13-10|
A|------------------------------------8h9p8h11p8—9h10h11----------------|
F|---------------------6h7p6h9p6—7h8h9----------------------------------|
C|------4h5p4h7p4—5h6h7-------------------------------------------------|
G|-3h4h5----------------------------------------------------------------|
C|----------------------------------------------------------------------|

D|--10---13--11-----------------------------------------|x2
A|----11--------10----13--11----------------------------|
F|-----------------11---------10----13--11--------------|
C|-------------------------------11--------10----13--11-|
G|--------------------------------------------11--------|
C|------------------------------------------------------|

D|---------------|-------------------|
A|-/8-8-8-8-8----|--/11-11-11-11-11--|
F|---------------|-------------------|
C|---------------|-------------------|
G|---------------|-------------------|
C|---------------|-------------------|

D|-----------------------------------------------------|
A|-------5---------------------------------------------|
F|-5h6h7---7p6p5---65----5-----------------------------|
C|---------------7----76---765-765---65----5-----------|
G|---------------------------------7----76----765--3---|
C|-----------------------------------------------------|


Guitarra 2
D|--------------------------8-----------11--|-----------------|
A|-------4---------8—8h9h10----13p12p11-----|-/8-8-8-8-8------|
F|-4h5h6----10p9p8--------------------------|-----------------|
C|------------------------------------------|-----------------|
G|------------------------------------------|-----------------|
C|------------------------------------------|-----------------|

D|-----------------------------------------------------|
A|-------5---------------------------------------------|
F|-5h6h7---7p6p5---65----5-----------------------------|
C|---------------7----76---765-765---65----5-----------|
G|---------------------------------7----76----765--3---|
C|-----------------------------------------------------|

D|------------------------------------------------------10h11h10---13-10|
A|------------------------------------8h9p8h11p8—9h10h11----------------|
F|---------------------6h7p6h9p6—7h8h9----------------------------------|
C|------4h5p4h7p4—5h6h7-------------------------------------------------|
G|-3h4h5----------------------------------------------------------------|
C|----------------------------------------------------------------------|

D|--10---13--11-----------------------------------------|
A|----11--------10----13--11----------------------------|
F|-----------------11---------10----13--11--------------|
C|-------------------------------11--------10----13--11-|
G|--------------------------------------------11--------|
C|------------------------------------------------------|

D|--15---18--16-----------------------------------------|
A|----16--------15----18--16----------------------------|
F|-----------------16---------15----18--16--------------|
C|-------------------------------16--------15----18--16-|
G|--------------------------------------------16--------|
C|------------------------------------------------------|

D|---------------|-------------------|
A|-/8-8-8-8-8----|--/11-11-11-11-11--|
F|---------------|-------------------|
C|---------------|-------------------|
G|---------------|-------------------|
C|---------------|-------------------|

D|-------------------------------------------------------------------------|
A|---------10--------------------------------------------------------------|
F|-10h11h12—-12p11p10----1110------10--------------------------------------|
C|--------------------12-------1211---121110-121110---1110-----10----------|
G|--------------------------------------------------12-----1211---121110-8-|
C|-------------------------------------------------------------------------|


Guitarra 1 y 2
D|----------|------------------------------------------------------------|
A|----------|------------------------------------------------------------|
F|----------|------------------------------------------------------------|
C|----------|------0h3p0h5p0-0---8/7-77----------------------------------|
G|----------|-0h3h5--------------6/5-55--------------------0h1p0---------|
C|-0h1p0-00-|---------------------------5*/4*/3*/2*--0h1h3-------0h1p0-00|
comments
We did not receive enough feedback on this tab! Please rate:
print report bad tab
1 2 3 4 5
I want to post or [tab]
guest
You may want to rate the tab now too:
select rating
Please do not post tabs as comments. Select "correction" instead!