Oops, an error
Loading. Please wait.

The Motherload bass

version 2
version 2

Whole song

  • This is my version based off of the other tab that... Show more
  • Transcribed from CoverSolutions, arranged for auto... Show more

Interactive

607 views 6 this week
no commentswrite comment
1 2 3 4 5
1 last vote to show rating
add to favorites
×
Save as Personal and add changes to this tab that will be seen only by you. Learn more ›
×
You can save this tab as Personal to edit and correct it or add notes. All changes will be seen only by you. Learn more »
launch autoscroll
font size
0
reset
guitar tuner
edit
Autoscroll
slow
fast
+/-
esc
set tempo
stop
About this tab version
This is my version based off of the other tab that was on here. I made a few changes to it. Was this info helpful? Yes No
-------------------------------------------------------------------------------
                             The Motherload - Mastodon
-------------------------------------------------------------------------------
Tabbed by: Joe B.
E-mail: bassistsr305@gmail.com

Tuning:C,G,C,F

Part 1
F|-----------------------------------9-------------------------------|
C|--------7-----------------7---7-10-----------7---------------------|
G|----5h8---8-5-3-5-----5h8---8------------5h8---8-5-3-5---------8-5-|
C|-0-----------------0------------------0-----------------7-8-10-----| Play 3x

Part 2 (same as part 1 but with alternate ending)
F|-----------------------------------9-------------------------------------|
C|--------7-----------------7---7-10-----------7---------------------------|
G|----5h8---8-5-3-5-----5h8---8------------5h8---8-5-3-5-----------7---3-5-|
C|-0-----------------0------------------0-----------------7---10-----------|

Part 1
F|-----------------------------------9-------------------------------|
C|--------7-----------------7---7-10-----------7---------------------|
G|----5h8---8-5-3-5-----5h8---8------------5h8---8-5-3-5---------8-5-|
C|-0-----------------0------------------0-----------------7-8-10-----|

Part 2
F|-----------------------------------9-------------------------------------|
C|--------7-----------------7---7-10-----------7---------------------------|
G|----5h8---8-5-3-5-----5h8---8------------5h8---8-5-3-5-----------7---3-5-|
C|-0-----------------0------------------0-----------------7---10-----------

Chorus:

Part 1
F|--------------------------------------------|
C|---------3----------3-----------------------|
G|---3/5--------3/5-----1-1-1--3-3-5-3-0------|
C|-0-----0----0-----0--------------------5-3--| 

Part 2
F|----------------------------------------|
C|---------3----------3-------------------|
G|---3/5--------3/5-------------------3-3-|
C|-0-----0----0-----0---5-5-5-5--3-3------|

Part 1
F|--------------------------------------------|
C|---------3----------3-----------------------|
G|---3/5--------3/5-----1-1-1--3-3-5-3-0------|
C|-0-----0----0-----0--------------------5-3--| 

Part 2
F|----------------------------------------|
C|---------3----------3-------------------|
G|---3/5--------3/5-------------------3-3-|
C|-0-----0----0-----0---5-5-5-5--3-3------|


Post Chorus
F|----------------------|
C|----------------------|
G|----------------------|
C|-10-8-7-7---5-3-0-3-5-| Play 4x

Part 1
F|-----------------------------------9-------------------------------|
C|--------7-----------------7---7-10-----------7---------------------|
G|----5h8---8-5-3-5-----5h8---8------------5h8---8-5-3-5---------8-5-|
C|-0-----------------0------------------0-----------------7-8-10-----|

Part 2
F|-----------------------------------9-------------------------------------|
C|--------7-----------------7---7-10-----------7---------------------------|
G|----5h8---8-5-3-5-----5h8---8------------5h8---8-5-3-5-----------7---3-5-|
C|-0-----------------0------------------0-----------------7---10-----------|

Part 1
F|-----------------------------------9-------------------------------|
C|--------7-----------------7---7-10-----------7---------------------|
G|----5h8---8-5-3-5-----5h8---8------------5h8---8-5-3-5---------8-5-|
C|-0-----------------0------------------0-----------------7-8-10-----| Play 3x

Part 2
F|-----------------------------------9-------------------------------------|
C|--------7-----------------7---7-10-----------7---------------------------|
G|----5h8---8-5-3-5-----5h8---8------------5h8---8-5-3-5-----------7---3-5-|
C|-0-----------------0------------------0-----------------7---10-----------|

Chorus:

Part 1
F|--------------------------------------------|
C|---------3----------3-----------------------|
G|---3/5--------3/5-----1-1-1--3-3-5-3-0------|
C|-0-----0----0-----0--------------------5-3--|

Part 2
F|----------------------------------------|
C|---------3----------3-------------------|
G|---3/5--------3/5-------------------3-3-|
C|-0-----0----0-----0---5-5-5-5--3-3------|

Part 1
F|--------------------------------------------|
C|---------3----------3-----------------------|
G|---3/5--------3/5-----1-1-1--3-3-5-3-0------|
C|-0-----0----0-----0--------------------5-3--|

Part 2
F|----------------------------------------|
C|---------3----------3-------------------|
G|---3/5--------3/5-------------------3-3-|
C|-0-----0----0-----0---5-5-5-5--3-3------|




Play Post Chorus 4x

Bridge:

Part 1
F|-------------------------------------------------|
C|-------------------------------------------------|
G|-------------------------------------------------|
C|-2--2--2-2-2-2--2--2-2-2-7--7--7-7-7-5--5--5-5-5-| Play 2X

Part 2
F|----------------------------------------------------|
C|-7--7--7-7-7----------------------------------------|
G|-------------8--8--8-8-8-5--5--5-5-5-3--3-3--2--2-2-|
C|----------------------------------------------------| Play 1X

Part 3
F|-------------------------------------------------|
C|-7--7--7-7-7-------------------------------------|
G|-------------5--5--5-5-5-3--3--3-3-3-2--2--2-2-2-|
C|-------------------------------------------------| Play 1X

Part 4
F|-------------------------------------------------|
C|-8--8--8-8-8-5--5--5-5-5-7--7--7-7-7-7--7--7-7-7-|
G|-------------------------------------------------|
C|-------------------------------------------------| Play 4X

Part 5
F|-------------------------------------------------|
C|-------------------------------------------------|
G|-------------------------------------------------|
C|-8--8--8-8-8-5--5--5-5-5-7--7--7-7-7-7--7--7-7-7-| Play 8X

Ending Part/Post Chorus
F|----------------------|
C|----------------------|
G|----------------------|
C|-10-8-7-7---5-3-0-3-5-| Play 3x

F|-------------------------|
C|-------------------------|
G|-------------------------|
C|-10-8-7-7(r)--5-3-0-3-5-0--| 

End on open C and let ring out.

** On last riff of post chorus there is a slight rest between two notes with emphasis
on the second note,shown with (r)
Listen to the song for timing.


| /  slide up
| \  slide down
| h  hammer-on
| p  pull-off
| ~  vibrato
| +  harmonic
| x  Mute note
===============================================================================

            
            
Suggest correction
Creating personal tab
Creating personal tab
You can edit any tab online and save it as your Personal.

You can edit, replace or remove any tab part or add personal notes – all changes will be seen only by you.

Personal tabs can be accessed anytime from any device, even offline.
Learn more »
Give kudos to tab author, rate the tab!
1 2 3 4 5
comments
print report bad tab
guest
You may want to rate the tab now too:
select rating
Wanna post a correction for this tab? Suggest correction