Oops, an error
Loading. Please wait.

The Motherload bass

version 3
version 3

Whole song

  • This is my version based off of the other tab that... Show more
  • Transcribed from CoverSolutions, arranged for auto... Show more

Interactive

16 views 1 this week
no commentswrite comment
1 2 3 4 5
3 more votes to show rating
add to favorites
×
Save as Personal and add changes to this tab that will be seen only by you. Learn more ›
×
You can save this tab as Personal to edit and correct it or add notes. All changes will be seen only by you. Learn more »
launch autoscroll
font size
0
reset
guitar tuner
edit
Autoscroll
slow
fast
+/-
esc
set tempo
stop
About this tab version
Transcribed from CoverSolutions, arranged for autoscroll. Includes all octaves and variations, video link in tab. Was this info helpful? Yes No
https://www.youtube.com/watch?v=3wKNtYrGgnE

[Intro]
F|-----------------|--------------------------|--------------------------|--------------------------|
C|-----------------|--------------------------|---------------------14---|--------------------------|
G|-----------------|---------12---------------|---------12----12-15------|---------12---------------|
C|---------------0-|-+-12h15----15-12-10-12-0-|-+-12h15----15----------0-|-+-12h15----15-12-10-12-7-|

F|------------9-+---|--------------------------|--------------------------|--------------------------|
C|------------------|--------------------------|---------------------14---|--------------------------|
G|--------8-+-7-+---|---------12---------------|---------12----12-15------|---------12---------------|
C|-+-8-10---------0-|-+-12h15----15-12-10-12-0-|-+-12h15----15----------0-|-+-12h15----15-12-10-12-7-|

F|------------9-+---|
C|------------------|
G|--------8-+-7-+---|
C|-+-8-10---------0-|

[Verse]
F|--------------------------|--------------------------|--------------------------|--------10-+-9-+---|
C|--------------------------|---------------------14---|--------------------------|-------------------|
G|---------12---------------|---------12----12-15------|---------12---------------|--------8--+-7-+---|
C|-+-12h15----15-12-10-12-0-|-+-12h15----15----------0-|-+-12h15----15-12-10-12-7-|-+-8-10----------0-|

F|--------------------------|--------------------------|--------------------------|-----------------|
C|--------------------------|---------------------14---|--------------------------|-----------------|
G|---------12---------------|---------12----12-15------|---------12-------------0-|-+-0-r-3-r---3---|
C|-+-12h15----15-12-10-12-0-|-+-12h15----15----------0-|-+-12h15----15-12-10-12---|-----------5---0-|

F|--------------------------|--------------------------|--------------------------|------------9-+---|
C|--------------------------|---------------------14---|--------------------------|------------------|
G|---------12---------------|---------12----12-15------|---------12---------------|--------8-+-7-+---|
C|-+-12h15----15-12-10-12-0-|-+-12h15----15----------0-|-+-12h15----15-12-10-12-7-|-+-8-10---------0-|

F|--------------------------|--------------------------|--------------------------|-----------------|
C|--------------------------|---------------------14---|--------------------------|-----------------|
G|---------12---------------|---------12----12-15------|---------12-------------0-|-+-0-r-3-r---3---|
C|-+-12h15----15-12-10-12-0-|-+-12h15----15----------0-|-+-12h15----15-12-10-12---|-----------5---0-|

[Chorus]
F|-----------------|-----------------|------------------|--------------------|
C|-----------------|-----------------|------------------|--------------------|
G|---3-5-+-8-+-5---|---3-5-+-8-+-5---|------------------|--------------------|
C|-+-------------0-|-+-------------8-|-+-8-8-+-8-8-0-10-|-+-10-12-10-7-5-5-0-|

F|-----------------|-----------------|-----------------|--------------------|
C|-----------------|-----------------|-----------------|--------------------|
G|---3-5-+-8-+-5---|---3-5-+-8-+-5---|-----------------|--------------------|
C|-+-------------0-|-+-------------5-|-+-5-5-+-5-5-0-3-|-+-3-3-10-+-10-10-0-|

F|-----------------|-----------------|------------------|--------------------|
C|-----------------|-----------------|------------------|--------------------|
G|---3-5-+-8-+-5---|---3-5-+-8-+-5---|------------------|--------------------|
C|-+-------------0-|-+-------------8-|-+-8-8-+-8-8-0-10-|-+-10-12-10-7-5-5-0-|

F|-----------------|-----------------|-----------------|--------------------|
C|-----------------|-----------------|-----------------|--------------------|
G|---3-5-+-8-+-5---|---3-5-+-8-+-5---|-----------------|--------------------|
C|-+-------------0-|-+-------------5-|-+-5-5-+-5-5-0-3-|-+-3-3-10-+-10-10-8-|

[Post Chorus]
F|-----------------|------------------|-----------------|------------------|
C|-----------------|------------------|-----------------|------------------|
G|-----------------|------------------|-----------------|------------------|
C|-+-7-7-+-7-7-0-5-|-+-3-0-3-+-5-10-8-|-+-7-7-+-7-7-0-5-|-+-3-0-3-+-5-10-8-|

F|-----------------|------------------|-----------------|------------------|
C|-----------------|------------------|-----------------|------------------|
G|-----------------|------------------|-----------------|------------------|
C|-+-7-7-+-7-7-0-5-|-+-3-0-3-+-5-10-8-|-+-7-7-+-7-7-0-5-|-+-3-0-3-+-5-10-0-|

[Interlude]
F|--------------------------|--------------------------|--------------------------|------------9-+---|
C|--------------------------|---------------------14---|--------------------------|------------------|
G|---------12---------------|---------12----12-15------|---------12---------------|--------8-+-7-+---|
C|-+-12h15----15-12-10-12-0-|-+-12h15----15----------0-|-+-12h15----15-12-10-12-7-|-+-8-10---------0-|

F|--------------------------|--------------------------|--------------------------|-----------------|
C|--------------------------|---------------------14---|--------------------------|-----------------|
G|---------12---------------|---------12----12-15------|---------12-------------0-|-+-0-r-3-r---3---|
C|-+-12h15----15-12-10-12-0-|-+-12h15----15----------0-|-+-12h15----15-12-10-12---|-----------5---0-|

[Verse 2]
F|--------------------------|--------------------------|--------------------------|------------9-+---|
C|--------------------------|---------------------14---|--------------------------|------------------|
G|---------12---------------|---------12----12-15------|---------12---------------|--------8-+-7-+---|
C|-+-12h15----15-12-10-12-0-|-+-12h15----15----------0-|-+-12h15----15-12-10-12-7-|-+-8-10---------0-|

F|--------------------------|--------------------------|--------------------------|------------9-+---|
C|--------------------------|---------------------14---|--------------------------|------------------|
G|---------12---------------|---------12----12-15------|---------12---------------|--------8-+-7-+---|
C|-+-12h15----15-12-10-12-0-|-+-12h15----15----------0-|-+-12h15----15-12-10-12-7-|-+-8-10---------0-|

F|--------------------------|--------------------------|--------------------------|------------9-+---|
C|--------------------------|---------------------14---|--------------------------|------------------|
G|---------12---------------|---------12----12-15------|---------12---------------|--------8-+-7-+---|
C|-+-12h15----15-12-10-12-0-|-+-12h15----15----------0-|-+-12h15----15-12-10-12-7-|-+-8-10---------0-|

F|--------------------------|--------------------------|--------------------------|-----------------|
C|--------------------------|---------------------14---|--------------------------|-----------------|
G|---------12---------------|---------12----12-15------|---------12-------------0-|-+-0-r-3-r---3---|
C|-+-12h15----15-12-10-12-0-|-+-12h15----15----------0-|-+-12h15----15-12-10-12---|-----------5---0-|

[Chorus 2]
F|-----------------|-----------------|------------------|--------------------|
C|-----------------|-----------------|------------------|--------------------|
G|---3-5-+-8-+-5---|---3-5-+-8-+-5---|------------------|--------------------|
C|-+-------------0-|-+-------------8-|-+-8-8-+-8-8-0-10-|-+-10-12-10-7-5-5-0-|

F|-----------------|-----------------|-----------------|--------------------|
C|-----------------|-----------------|-----------------|--------------------|
G|---3-5-+-8-+-5---|---3-5-+-8-+-5---|-----------------|--------------------|
C|-+-------------0-|-+-------------5-|-+-5-5-+-5-5-0-3-|-+-3-3-10-+-10-10-0-|

F|-----------------|-----------------|------------------|---------------------|
C|-----------------|-----------------|------------------|---------------------|
G|---3-5-+-8-+-5---|---3-5-+-8-+-5---|------------------|---------------------|
C|-+-------------0-|-+-------------8-|-+-8-8-+-8-8-0-10-|-+-10-10-12-10-8-5-0-|

F|-----------------|-----------------|-----------------|--------------------|
C|-----------------|-----------------|-----------------|--------------------|
G|---3-5-+-8-+-5---|---3-5-+-8-+-5---|-----------------|--------------------|
C|-+-------------0-|-+-------------5-|-+-5-5-+-5-5-0-3-|-+-3-3-10-+-10-10-8-|

[Post Chorus 2]
F|-----------------|------------------|-----------------|------------------|
C|-----------------|------------------|-----------------|------------------|
G|-----------------|------------------|-----------------|------------------|
C|-+-7-7-+-7-7-0-5-|-+-3-0-3-+-5-10-8-|-+-7-7-+-7-7-0-5-|-+-3-0-3-+-5-10-8-|

F|-----------------|------------------|-----------------|-----------------|
C|-----------------|------------------|-----------------|-----------------|
G|-----------------|------------------|-----------------|-------3-+-3-3---|
C|-+-7-7-+-7-7-0-5-|-+-3-0-3-+-5-10-8-|-+-7-7-+-7-7-0-3-|-+-3-3---------2-|

[Solo]
F|-----------------|-----------------|-----------------|-----------------|
C|-----------------|-----------------|-----------------|-----------------|
G|-----------------|-----------------|-----------------|-----------------|
C|-+-2-2-+-2-2-2-2-|-+-2-2-+-2-2-2-7-|-+-7-7-+-7-7-7-5-|-+-5-5-+-5-5-5-2-|

F|-----------------|-----------------|-----------------|-----------------|
C|-----------------|-----------------|-----------------|-----------------|
G|-----------------|-----------------|-----------------|---------------0-|
C|-+-2-2-+-2-2-2-2-|-+-2-2-+-2-2-2-7-|-+-7-7-+-7-7-7-5-|-+-5-5-+-5-5-5---|

F|-----------------|-----------------|-----------------|-----------------|
C|-----------------|-----------------|-----------------|-----------------|
G|-+-0-0-+-0-0-0-8-|-+-8-8-+-8-8-8-5-|-+-5-5-+-5-5-5-3-|-+-3-3-2-+-2-2-0-|
C|-----------------|-----------------|-----------------|-----------------|

F|-----------------|-----------------|-----------------|-----------------|
C|-----------------|-----------------|-----------------|-----------------|
G|-+-0-0-+-0-0-0-5-|-+-5-5-+-5-7-5-3-|-+-3-3-+-3-5-7-2-|-+-2-2-+-2-2-2---|
C|-----------------|-----------------|-----------------|---------------8-|

F|-----------------|-----------------|-----------------|-----------------|
C|-----------------|-----------------|-----------------|-----------------|
G|-----------------|-----------------|-----------------|-----------------|
C|-+-8-8-8-8-8-8-5-|-+-5-5-5-5-5-5-7-|-+-7-7-7-7-7-7-7-|-+-7-7-7-7-7-7-8-|

F|-----------------|-----------------|-----------------|-----------------|
C|-----------------|-----------------|-----------------|-----------------|
G|-----------------|-----------------|-----------------|-----------------|
C|-+-8-8-8-8-8-8-5-|-+-5-5-5-5-5-5-7-|-+-7-7-7-7-7-7-7-|-+-7-7-7-7-7-7-8-|

F|-----------------|-----------------|-----------------|-----------------|
C|-----------------|-----------------|-----------------|-----------------|
G|-----------------|-----------------|-----------------|-----------------|
C|-+-8-8-8-8-8-8-5-|-+-5-5-5-5-5-5-7-|-+-7-7-7-7-7-7-7-|-+-7-7-7-7-7-7-8-|

F|-----------------|-----------------|-----------------|-----------------|
C|-----------------|-----------------|-----------------|-----------------|
G|-----------------|-----------------|-----------------|-----------------|
C|-+-8-8-8-8-8-8-5-|-+-5-5-5-5-5-5-7-|-+-7-7-7-7-7-7-7-|-+-7-7-7-7-7-7-8-|

F|-----------------|-----------------|-----------------|-----------------|
C|-----------------|-----------------|-----------------|-----------------|
G|-----------------|-----------------|-----------------|-----------------|
C|-+-8-8-8-8-8-8-5-|-+-5-5-5-5-5-5-7-|-+-7-7-7-7-7-7-7-|-+-7-7-7-7-7-7-8-|

F|-----------------|-----------------|-----------------|-----------------|
C|-----------------|-----------------|-----------------|-----------------|
G|-----------------|-----------------|-----------------|-----------------|
C|-+-8-8-8-8-8-8-5-|-+-5-5-5-5-5-5-7-|-+-7-7-7-7-7-7-7-|-+-7-7-7-7-7-7-8-|

F|-----------------|-----------------|-----------------|-----------------|
C|-----------------|-----------------|-----------------|-----------------|
G|-----------------|-----------------|-----------------|-----------------|
C|-+-8-8-8-8-8-8-5-|-+-5-5-5-5-5-5-7-|-+-7-7-7-7-7-7-7-|-+-7-7-7-7-7-7-8-|

F|-----------------|-----------------|-----------------|-----------------|
C|-----------------|-----------------|-----------------|-----------------|
G|-----------------|-----------------|-----------------|-----------------|
C|-+-8-8-8-8-8-8-5-|-+-5-5-5-5-5-5-7-|-+-7-7-7-7-7-7-7-|-+-7-7-7-7-7-7-8-|

F|-----------------|-----------------|-----------------|-----------------|
C|-----------------|-----------------|-----------------|-----------------|
G|-----------------|-----------------|-----------------|-----------------|
C|-+-8-8-8-8-8-8-5-|-+-5-5-5-5-5-5-7-|-+-7-7-7-7-7-7-7-|-+-7-7-7-7-7-7-8-|

F|-----------------|-----------------|-----------------|-----------------|
C|-----------------|-----------------|-----------------|-----------------|
G|-----------------|-----------------|-----------------|-----------------|
C|-+-8-8-8-8-8-8-5-|-+-5-5-5-5-5-5-7-|-+-7-7-7-7-7-7-7-|-+-7-7-7-7-7-7-0-|

[Chorus 3]
F|-----------------|-----------------|------------------|--------------------|
C|-----------------|-----------------|------------------|--------------------|
G|---3-5-+-8-+-5---|---3-5-+-8-+-5---|------------------|--------------------|
C|-+-------------0-|-+-------------8-|-+-8-8-+-8-8-0-10-|-+-10-12-10-7-5-5-0-|

F|-----------------|-----------------|-----------------|--------------------|
C|-----------------|-----------------|-----------------|--------------------|
G|---3-5-+-8-+-5---|---3-5-+-8-+-5---|-----------------|--------------------|
C|-+-------------0-|-+-------------5-|-+-5-5-+-5-5-0-3-|-+-3-3-10-+-10-10-0-|

F|-----------------|-----------------|------------------|--------------------|
C|-----------------|-----------------|------------------|--------------------|
G|---3-5-+-8-+-5---|---3-5-+-8-+-5---|------------------|--------------------|
C|-+-------------0-|-+-------------8-|-+-8-8-+-8-8-0-10-|-+-10-12-10-7-5-5-0-|

F|-----------------|-----------------|-----------------|--------------------|
C|-----------------|-----------------|-----------------|--------------------|
G|---3-5-+-8-+-5---|---3-5-+-8-+-5---|-----------------|--------------------|
C|-+-------------0-|-+-------------5-|-+-5-5-+-5-5-0-3-|-+-3-3-10-+-10-10-8-|

[Post Chorus 2]
F|-----------------|------------------|-----------------|------------------|
C|-----------------|------------------|-----------------|------------------|
G|-----------------|------------------|-----------------|------------------|
C|-+-7-7-+-7-7-0-5-|-+-3-0-3-+-5-10-8-|-+-7-7-+-7-7-0-5-|-+-3-0-3-+-5-10-8-|

F|-----------------|------------------|-----------------|------------------|
C|-----------------|------------------|-----------------|------------------|
G|-----------------|------------------|-----------------|------------------|
C|-+-7-7-+-7-7-0-5-|-+-3-0-3-+-5-10-8-|-+-7-7-+-7-7-r-5-|-+-3-0-3-+-5-10-0-|


************************************

| +  Hold note
| h  Hammer on
| r  Rest

************************************

            
            
Suggest correction
Creating personal tab
Creating personal tab
You can edit any tab online and save it as your Personal.

You can edit, replace or remove any tab part or add personal notes – all changes will be seen only by you.

Personal tabs can be accessed anytime from any device, even offline.
Learn more »
Give kudos to tab author, rate the tab!
1 2 3 4 5
comments
print report bad tab
guest
You may want to rate the tab now too:
select rating
Wanna post a correction for this tab? Suggest correction