Oops, an error
Loading. Please wait.

Air I Breathe bass

367 views 3 this week
1 commentread comment
1 2 3 4 5
2 more votes to show rating
add to favorites
×
Save as Personal and add changes to this tab that will be seen only by you. Learn more ›
×
You can save this tab as Personal to edit and correct it or add notes. All changes will be seen only by you. Learn more »
launch autoscroll
font size
0
reset
guitar tuner
edit
Autoscroll
slow
fast
+/-
esc
set tempo
stop
Author
-------------------------------------------------------------------------------
                             Air I Breath - Mat Kearny
-------------------------------------------------------------------------------
Tabbed by: Dunkadooball
E-mail: 

Tuning:Standard
Verse and Pre Chorus
G|---------------------------------------------------------------------------|
D|--8--8----8--10--10-8------------------------------------------------------|
A|-------10--------------10-10--10-10-8-6--6-6/------------------------------|
E|---------------------------------------------------------------------------|
Chorus and Bridge
G|-----------|---------------------------------------------------------------|
D|-------8---|-------------------8--88---------------------------------------|
A|--10-6---8-|--10--1010--6--66--------8--88---------------------------------|
E|-----------|---------------------------------------------------------------|
   ^hold out


| /  slide up
| \  slide down
| h  hammer-on
| p  pull-off
| ~  vibrato
| +  harmonic
| x  Mute note
===============================================================================

            
            
Suggest correction
Creating personal tab
Creating personal tab
You can edit any tab online and save it as your Personal.

You can edit, replace or remove any tab part or add personal notes – all changes will be seen only by you.

Personal tabs can be accessed anytime from any device, even offline.
Learn more »
Give kudos to tab author, rate the tab!
1 2 3 4 5
comments
print report bad tab
1 comment total.
0 reply
montyhobson 236 Apr 05, 2016 02:42 PM

Looks pretty good. For an accurate chord chart of this same song with measure markers, tempo, time signature, and PCO copy and paste 100% accuracy click here
http://accuratechordcharts.blogspot.com/2016/04/airibreatheaccuratechordchartsmatkearney.html

guest
You may want to rate the tab now too:
select rating
Wanna post a correction for this tab? Suggest correction