Oops, an error
Loading. Please wait.

Bullet Chords

3,747 views 6 this week
no commentswrite comment
1 2 3 4 5
x 3
add to favorites
launch autoscroll
font size
0
reset
transpose
0
reset
simplify chords
display chords
guitar tuner
Autoscroll
slow
fast
+/-
esc
set tempo
stop
Help us to improve Ultimate-Guitar.com Take our survey!
×
Difficulty
Capo
novice
3rd fret
PLEASE RATE!!!

Capo: 3

Chords used:
   (With Capo)              (Without Capo)
   Em7  C2  G  D          Em  C   G   D
E:-3-----3--3--3         -10--11--7---9----|
B:-3-----3--3--3         -11--11--7---11---|
G:-0-----0--0--2         -12--12--8---11---|
D:-2-----2--0--0         -12--13--9---11---|
A:-2-----3--2--0         -10--13--9---9----|
E:-0-----X--3--X         -X---11--7---X----|

Intro: 
E:--------|
B:--------|
G:--------|
D:--0-2~~~|
A:--------|
E:--------|

verse: 
E:--------------------------------------------------------------------------|
B:--------------------------------------------------------------------------|
G:-----------------------------2-4-------------------------2----------------|
D:--2-2-4-2-4--2-4-5---2-2-5-2------2-2-4-2-4--2-4-5---2-2---5-4-4-5-4-2----|
A:--------------------------------------------------------------------------|
E:--------------------------------------------------------------------------|

Pre-chorus:
Em7
Doesn't matter if you call me wrong,
C2
Doesn't matter if you steal my song,
G
Doesn't matter if we're all alone,
D
It doesn't matter at all.

Chorus:
Em7
'Cause I would take a bullet for you!
C2
I would take a bullet for you!
G                                      D
I would cross any line; swim across the sea.
Em7
'Cuase I would take a bullet for you!
C2
I would take a bullet for you!
G                                           D
I would lose it all, and take my fall to show you... it's for real.

E:--3-2----3-2-0~-3-2------0-2~--|
B:-----3~-------------3~-3-------|
G:-------------------------------|
D:-------------------------------|
A:-------------------------------|
E:-------------------------------|

(repeat verse, pre-chorus, and chorus)

thats about all you need to know
Suggest correction
Give kudos to tab author, rate the tab!
1 2 3 4 5
comments
print report bad tab
guest
You may want to rate the tab now too:
select rating
Wanna post a correction for this tab? Suggest correction