Oops, an error
Loading. Please wait.

Bosque Verde tab

226 views 15 this week
no commentswrite comment
1 2 3 4 5
1 last vote to show rating
add to favorites
×
Save as Personal and add changes to this tab that will be seen only by you. Learn more ›
×
You can save this tab as Personal to edit and correct it or add notes. All changes will be seen only by you. Learn more »
launch autoscroll
font size
0
reset
how to read this tab
guitar tuner
edit
Autoscroll
slow
fast
+/-
esc
set tempo
stop
Author
Difficulty
About this tab version
There other versions of this tab on UG but I felt like they weren't that great so I made this, hopefully this is easier to understand. Listen to the song for strumming patterns and timing. Was this info helpful? Yes No
[Verse]
Here's the start of a familiar theme...
e|-----------------------------------------------0--0--0|
B|-----------------------------------------------1--1--1|
G|---------2---0-----0----------1-----2-----4h5--2--0--2|
D|----2-------------------2----------------------2--2--3| x4
A|-3----3----3----3----2-----2-----2-----2-------0--3--3|
E|-----------------------------------------------x--3--x|

[Chorus]
Fluorescent dream...
e|--0--0--0--0--------|
B|--1--0--1--1--------| 
G|--2--0--0--2--------| x2
D|--2--2--2--3--------|
A|--0--2--3--3--------|
E|--x--0--3--x--------|

I feel your spreading fire...
e|-----------------------------------------------0--0--0|
B|-----------------------------------------------1--1--1|
G|---------2---0-----0----------1-----2-----4h5--2--0--2|
D|----2-------------------2----------------------2--2--3| x4
A|-3----3----3----3----2-----2-----2-----2-------0--3--3|
E|-----------------------------------------------x--3--x|


[Chorus]
Fluorescent dream...
e|--0--0--0--0--------|
B|--1--0--1--1--------| 
G|--2--0--0--2--------|  x2
D|--2--2--2--3--------|
A|--0--2--3--3--------|
E|--x--0--3--x--------|

[Solo] 
(Electric guitar)
e|--------15-----15/17-15-12---------------------|
B|-12h13-------------------------13--12----------|
G|--------------------------------------14-------|
D|-----------------------------------------------|
A|-----------------------------------------------|
E|-----------------------------------------------|

e|-------15-------15/17-15-12------------------|
B|-12h13----------------------13--12--13-12----|
G|-------------------------------------------14|
D|---------------------------------------------|
A|---------------------------------------------|
E|---------------------------------------------|

[Outro]
Paint the sky with this familiar theme...
e|-----------------------------------------------0--0--0|
B|-----------------------------------------------1--1--1|
G|---------2---0-----0----------1-----2-----4h5--2--0--2|
D|----2-------------------2----------------------2--2--3| 
A|-3----3----3----3----2-----2-----2-----2-------0--3--3|
E|-----------------------------------------------x--3--x|

************************************

| x  Dead note
| /  Slide up
| h  Hammer-on

************************************

            
            
Suggest correction
Creating personal tab
Creating personal tab
You can edit any tab online and save it as your Personal.

You can edit, replace or remove any tab part or add personal notes – all changes will be seen only by you.

Personal tabs can be accessed anytime from any device, even offline.
Learn more »
Give kudos to tab author, rate the tab!
1 2 3 4 5
comments
print report bad tab
guest
You may want to rate the tab now too:
select rating
Wanna post a correction for this tab? Suggest correction