Oops, an error
Loading. Please wait.

Under The Landslide Tab

787 views 1 this week
no commentswrite comment
1 2 3 4 5
3 more votes to show rating
add to favorites
launch autoscroll
font size
0
reset
how to read this tab
guitar tuner
Autoscroll
slow
fast
+/-
esc
set tempo
stop
Help us to improve Ultimate-Guitar.com Take our survey!
×
Difficulty
Tuning
intermediate
D G C F A D
Tuning: One step-down

Intro Chords. (also used in every vers) 

I.    D ------------------------------------------------|
      A ------------------------------------------------|
      F ------------------------------------------------|
      C --------0-----0-----0---------------------------|
      G ----4-----4-----4-----4---4---------------------|
      D --3---3-----3-----3-----3-----------------------|

II.   D ------------------------------------------------|
      A ------------------------------------------------|
      F --------4-----0-----4---------------------------|
      C ----2-----2-----2-----2---2---------------------|
      G --3---3-----3-----3-----3-----------------------|
      D ------------------------------------------------|

I.    D ------------------------------------------------|
      A ------------------------------------------------|
      F ------------------------------------------------|
      C --------0-----0-----0---------------------------|
      G ----4-----4-----4-----4---4---------------------|
      D --3---3-----3-----3-----3-----------------------|

III.  D ------------------------------------------------|
      A ------------------------------------------------|
      F --------4-----5-----4---------------------------|
      C ----2-----2-----2-----2---2---------------------|
      G --3---3-----3-----3-----3-----------------------|
      D ------------------------------------------------|


And that´s it! Repeat it in the order above. I, I, II and then III.


Chorus:

          "...they'll do what they've been told..."

I.    D ------------------------------------------------|
      A ------------------------------------------------|
      F --------7-----7-----7---------------------------|
      C ----7-----7-----7-----7---7---------------------|
      G --5---5-----5-----5-----5-----------------------|
      D ------------------------------------------------|
         
               "...under the landslide..."

II.   D ------------------------------------------------|
      A ------------------------------------------------|
      F --------5-----------5------5--------------------|
      C ----5-----5---5---5------5----------------------|
      G --3---3-----3---2-------------------------------|
      D ----------------------3-------------------------|


and then repeat everything (I, II, I,...)


Outro: (Just repeat this...)

      D ------------------------------------------------|
      A ------------------------------------------------|
      F ------------------------------------------------|
      C --------0-----0-----0---------------------------|
      G ----4-----4-----4-----4---4---------------------|
      D --3---3-----3-----3-----3-----------------------|


I´m 99,99% sure that it´s absolutely correct!


Wonderful song by one of the best singer/songwriter out there :)
Have fun!
Suggest correction
Give kudos to tab author, rate the tab!
1 2 3 4 5
comments
print report bad tab
guest
You may want to rate the tab now too:
select rating
Wanna post a correction for this tab? Suggest correction