Oops, an error
Loading. Please wait.

If All Else Fails Bass

version 1
version 1

Whole song

Interactive

1,254 views 1 this week
no commentswrite comment
1 2 3 4 5
x 3
add to favorites
×
Save as Personal and add changes to this tab that will be seen only by you. Learn more ›
×
You can save this tab as Personal to edit and correct it or add notes. All changes will be seen only by you. Learn more »
save as personal
new!
launch autoscroll
font size
0
reset
guitar tuner
Autoscroll
slow
fast
+/-
esc
set tempo
stop
Author
Song: If all else fails
Artist: Matchbook Romance
Album: Your stories, my alibis
Tabbed by: Yaridovich60
Email: Yaridovich60@hotmail.com

Tuned half a step down



Intro x2

|-11-------9-------12-------11-9-11---------------9------------|
|----12-12---12-12----12-12-----------12---11-----------12-11-9|
|-----------------------------------9----9----9-9---9-9--------|
|--------------------------------------------------------------|

|------14\12-11-12---8-11-12---------8-10-8------8-10------10--|
|---12-----------------------12-11------------12--------10-----|
|-9----------------8---------------8--------8---------8--------|
|--------------------------------------------------------------|

|-8------------------------------------------------------------|
|---12-8-------------------------------------------------------|
|--------------------------------------------------------------|
|--------------------------------------------------------------|


Verse 1

|--------------------------------------------------------------|
|-------7-7-7-5-5-5-4---4-------7-7-7-9-9-9-7-5-4-------5-5-5--|
|-5-5-5---------------5---5-5-5--------------------------------|
|-------------------------------------------------3-3-3--------|

|--------------------------------------------------------------|
|-4-4-4-------------4-5-4--------------------------------------|
|-------7-7-7-------------7-7-7-9-7-5--------------------------|
|-------------3-3-3--------------------------------------------|


|--------------------------------------------------------------|
|-------7-7-7-5-5-5-4---4-------7-7-7-9-9-9-7-5-4-------5-5-5--|
|-5-5-5---------------5---5-5-5--------------------------------|
|-------------------------------------------------3-3-3--------|

|--------------------------------------------------------------|
|-4-4-4-------------4-5-4--------------------------------------|
|-------7-7-7--------------------------------------------------|
|-------------3-3-3--------------------------------------------|


|--------------------------------------------------------------|
|--------------------------------------------------------------|
|-5-5-5-5-5-5-5-5-5-5-5-5-4-4-4-4-4-4-4-4-4-4-4-4--------------|
|--------------------------------------------------------------|

|--------------------------------------------------------------|
|--------------------------------------------------------------|
|--------------------------------------------------------------|
|-2-2-2-2-2-2-2-2-2-2-2-2-1-1-1-1-1-1-0~-----------------------|



Verse 2

|--------------------------------------------------------------|
|-------7-7-7-5-5-5-4---4-------7-7-7-9-9-9-7-5-4-------5-5-5--|
|-5-5-5---------------5---5-5-5--------------------------------|
|-------------------------------------------------3-3-3--------|

|--------------------------------------------------------------|
|-4-4-4-------------4-5-4--------------------------------------|
|-------7-7-7-------------7-7-7-9-7-5--------------------------|
|-------------3-3-3--------------------------------------------|

|--------------------------------------------------------------|
|-------7-7-7-5-5-5-4---4-------7-7-7-9-9-9-7-5-4-------5-5-5--|
|-5-5-5---------------5---5-5-5--------------------------------|
|-------------------------------------------------3-3-3--------|

|--------------------------------------------------------------|
|-4-4-4--------------------------------------------------------|
|-------7-7-7--------------------------------------------------|
|--------------------------------------------------------------|


|--------------------------------------------------------------|
|--------------------------------------------------------------|
|-5-5-5-5-5-5-5-5-5-5-5-5--------------------------------------|
|-------------------------3-3-3-3-3-3-3-3-3-3-3-3--------------|
                  "she sets away..."

|--------------------------------------------------------------|
|--------------------------------------------------------------|
|-5-5-5-5-5-5-5-5-5-5-5-5--------------------------------------|
|-------------------------3-3-3-3-3-3-3-3-3-3-3-3--------------|
 "so close your eyes..."

|--------------------------------------------------------------|
|--------------------------------------------------------------|
|-5-5-5-5-5-5-5-5-5-5-5-5--------------------------------------|
|-------------------------3-3-3-3-3-3-3-3-3-3-3-3--------------|
 "I'm by your side..."

|--------------------------------------------------------------|
|--------------------------------------------------------------|
|-5-5-5-5-5-5-5-5-5-5-5-5--------------------------------------|
|-------------------------00000000-22222222-3~-----------------|
  "We'll set our course"


Verse 3

|--------------------------------------------------------------|
|-------7-7-7-5-5-5-4---4-------7-7-7-9-9-9-7-5-4-------5-5-5--|
|-5-5-5---------------5---5-5-5--------------------------------|
|-------------------------------------------------3-3-3--------|

|--------------------------------------------------------------|
|-4-4-4-------------4-5-4--------------------------------------|
|-------7-7-7-------------5~-----------------------------------|
|-------------3-3-3--------------------------------------------|

|--------------------------------------------------------------|
|--------------------------------------------------------------|
|-------------5/7-5~\0------------2-4-5------------------------|
|--------------------------------------------------------------|
"And I'm not sure..."


|--------------------------------------------------------------|
|-------7-7-7-5-5-5-4---4-------7-7-7-9-9-9-7-5-4-------5-5-5--|
|-5-5-5---------------5---5-5-5--------------------------------|
|-------------------------------------------------3-3-3--------|
"But it's clear..."

|--------------------------------------------------------------|
|-4-4-4--------------------------------------------------------|
|-------7-7-7--------------------------------------------------|
|--------------------------------------------------------------|


|--------------------------------------------------------------|
|--------------------------------------------------------------|
|-5-5-5-5-5-5-5-5-5-5-5-5--------------------------------------|
|-------------------------3-3-3-3-3-3-3-3-3-3-3-3--------------|
" ...laying there in front of me..."

|--------------------------------------------------------------|
|--------------------------------------------------------------|
|-5-5-5-5-5-5-5-5-5-5-5-5--------------------------------------|
|-------------------------3-3-3-3-3-3-3-3-3-3-3-3--------------|
 "so close your eyes..."

|--------------------------------------------------------------|
|--------------------------------------------------------------|
|-5-5-5-5-5-5-5-5-5-5-5-5--------------------------------------|
|-------------------------3-3-3-3-3-3-3-3-3-3-3-3--------------|
 "I'm by your side..."

|--------------------------------------------------------------|
|--------------------------------------------------------------|
|-5-5-5-5-5-5-5-5-5-5-5-5--------------------------------------|
|-------------------------00000000-22222222-3~-----------------|
  "We'll set our course"



Bridge

|--------------------------------------------------------------|
|--------------------------------------------------------------|
|-5-5-5-5-5-5-5-5-5-5-5-5--------------------------------------|
|-------------------------0-0-0-0-0-0-0-0-0-0-0-0--------------|

|--------------------------------------------------------------|
|--------------------------------------------------------------| x2
|--------------------------------------------------------------|
|-3-3-3-3--3-3-3-3--3-3-3-3--3-3-3-3---------------------------|


Verse 4 (calm piano part)

|--------------------------------------------------------------|
|--------------------------------------------------------------|
|--------------------------------------------------------------|
|0~--0----0---0--0-0-0-00000-----3-3-3-3-3-3-3-3-3-3-3-3-------|
        (along with the drum)

|--------------------------------------------------------------|
|--------------------------------------------------------------|
|-5-5-5-5-5-5-5-5-5-5-5-5--------------------------------------|
|-------------------------3-3-3-3-3-3-3-3-3-3-3-3--------------|
 "so close your eyes..."

|--------------------------------------------------------------|
|--------------------------------------------------------------|
|-5-5-5-5-5-5-5-5-5-5-5-5--------------------------------------|
|-------------------------3-3-3-3-3-3-3-3-3-3-3-3--------------|
 "I'm by your side..."

|--------------------------------------------------------------|
|--------------------------------------------------------------|
|-5-5-5-5-5-5-5-5-5-5-5-5--------------------------------------|
|-------------------------00000000-22222222-3~-----------------|
"We'll set our course..."

|--------------------------------------------------------------|
|--------------------------------------------------------------|
|--------------------------------------------------------------|
|-00000000-22222222-3~--00000000-22222222-3~-------------------|


Outro

No bass.


That's it!

Comments, corrections?  Email me at Yaridovich60@hotmail.com
Suggest correction
Give kudos to tab author, rate the tab!
1 2 3 4 5
comments
print report bad tab
guest
You may want to rate the tab now too:
select rating
Wanna post a correction for this tab? Suggest correction