Oops, an error
Loading. Please wait.

Tiger Lily chords

version 3
version 3

Whole song

4,751 views 9 this week
1 commentread comment
1 2 3 4 5
x 4
add to favorites
×
Save as Personal and add changes to this tab that will be seen only by you. Learn more ›
×
You can save this tab as Personal to edit and correct it or add notes. All changes will be seen only by you. Learn more »
launch autoscroll
font size
0
reset
transpose
0
reset
simplify chords
display chords
guitar tuner
edit
Autoscroll
slow
fast
+/-
esc
set tempo
stop
Strumming
There is no strumming pattern for this song yet. and get +5 IQ
Matchbook Romance
Tiger Lily
Stories and Alibis

Chords used:

G      - 320033
Cadd9  - x32033
Em7    - 022033
D      - xx0232
D/F#   - 2x023x


Verse 1:
           G    G(Hold)           Cadd9-Cadd9(Hold)
We drive tonight and you are by myside
               Em7      Em7(hold)        Cadd9              D
We're talking about our lives like we've known each other forever
           G G(Hold)                 Cadd9-Cadd9(Hold)
Time flies by with the sound of your voice
              Em7 Em7(Hold)     Cadd9      D
It's close to paradise with the end surely near


Refrain:
       G            Cadd9            Em7
And If I could only stop the car and hold on to you
              Cadd9              D
I'll never let go, I'll never let go
      G                Cadd9             Em7
As we round the corner to your house you turn to me and said
         Cadd9                                   D
"I'll be going through it rolled of you for this one night we have spent"
      G                   Cadd9             Em7
And I want to speak these words but I guess I'll just bite my tounge
    Cadd9                       D
And except someday somehow as a words that will hang from


Chorus: x2
    G  D/F#            Em7
And I, I don't want to speak these words
    Cadd9              D
Coz I, I don't want to make things any worse


Verse 2:
Cadd9(Hold)    D/F#(Hold)       G                D/F#
   Why does to---night, Have to end why don't we hit the start
   Em7                       Cadd9                    D/F#
It wasn't at our fa---vorite part, we'll skip the goodbyes
G(Hold)        D/F#         Em7                         Cadd9
   If I hadn't my way, I'll turn the car around and runaway
            D/F#
Just you and I

(Repeat Chorus)

Outro:

At second chorus, 2nd line is like this

    Cadd9(hold)        D(Hold)
Coz I, I don't want to make things
    Cadd9              D               G(let ring)
And I, I don't want to make things any worse


Guitar 2:

after "When you are by my side"
e|-------------|
B|-3-------0---|
G|---0---0-----|
D|-----0-------|
A|-------------|
E|-------------|

while "Why does to---night..."
e|-------------------------------------------------------------------|
B|-----------------------------------0----0-----0-----0-----0--------|
G|---0-----0-----0-----0-----0---------0----0-----0-----0-----0------|
D|-----2-----2-----2-----2-----2---0-----0----0-----0-----0-----0----|
A|-3-----3-----3-----3-----3-----3-----------------------------------|
E|-------------------------------------------------------------------|

While "Coz I, I Don't want to make things" at 2nd chorus at 2nd turn
e|-------------------------------------------------------------------|
B|-------------------------------------------------------------------|
G|-----0-----0-----0-----0-----0-----0---0h2---0h2---0h2---0h2---0h2-|
D|---2-----2-----2-----2-----2-----2---0-----0-----0-----0-----0-----|
A|-3-----3-----3-----3-----3-----3-----------------------------------|
E|-------------------------------------------------------------------|

While "Coz I, I Don't want to make things" at 2nd chorus at 2nd turn
e|------------------------------------------------------------------|
B|---0-----0-----0-----0-----0-------0-----0-----0-----0-----0------|
G|-----0-----0-----0-----0-----0---0-----0-----0-----0-----0--------|
D|-------------------------------0-----0-----0-----0-----0-----5----|
A|-3-----3-----3-----3-----3-----------------------------------5----|
E|-------------------------------------------------------------3----|

            
            
Suggest correction
Creating personal tab
Creating personal tab
You can edit any tab online and save it as your Personal.

You can edit, replace or remove any tab part or add personal notes – all changes will be seen only by you.

Personal tabs can be accessed anytime from any device, even offline.
Learn more »
comments
print report bad tab
1 comment total.
0 reply
b0nz0sm0ntreaux 10 Sep 29, 2006 01:29 PM

lyrics are off...but other than that i like the fact that you tabbed guitar 2 it shows effort thanks bro

guest
You may want to rate the tab now too:
select rating
Wanna post a correction for this tab? Suggest correction