Oops, an error
Loading. Please wait.
We have Chord Pro version of 3Am.
It's the closest thing you can get to the original song and it has interactive parts. Check out the tab »
×
31,250 views 9 this week
5 commentsread comments
1 2 3 4 5
x 22
add to favorites
×
Save as Personal and add changes to this tab that will be seen only by you. Learn more ›
×
You can save this tab as Personal to edit and correct it or add notes. All changes will be seen only by you. Learn more »
launch autoscroll
font size
0
reset
how to read this tab
guitar tuner
edit
Autoscroll
slow
fast
+/-
esc
set tempo
stop
----->******* put capo on the 1st fret ********<-----

h - hammer on
^ - up stroke
v - down stroke
~ - let ring
harm - harmonic

|--3---3-3--------------3---3-3----3------------------|
|--3---3-3--------------3---3-3-------3---------------|
|--0---0-0---------0----0---0-0-----------2-----------|
|0-0-0-0-0h2----0h2---0-0-0-0-0h2---------------------|
|2---2---3------------2---2---3-----------------------|
|3---3----------------3---3---------------------------|

 v v^  v v^ v v^ v v^ v v^ v v^ v v^ v v^ v v^ v v^ v v^
|3-33--3-33-3-33-3-33-3-33-3-33-3-33-3-33-3-33-3-33-3-33|
|3-33--3-33-3-33-3-33-3-33-3-33-3-33-3-33-3-33-3-33-3-33|
|0-00--0-00-0-00-0-00-0-00-0-00-0-00-0-00-0-00-0-00-0-00|
|0-00--2-22-2-22-0-00-2-22-2-22-0-00-2-22-2-22-0-00-2-22|
|2-22--3-33-3-33-2-22-3-33-3-33-2-22-3-33-3-33-2-22-3-33|
|3-33------------3-33-----------3-33-----------3-33-----|

|------------0h2--0---------0------------------|
|-------------------3---------3----------------|
|----------2--------------0-----0-----0--------|
|----0h2-0--------------2---------0h2----------|
|0h2------------------3------------------------|
|----------------------------------------------|

 v v^ v v^ v v^ v v^ v v^
|3-33-3-33-3-33-3-33-3-33-----|
|3-33-3-33-3-33-3-33-3-33-----|
|0-00-0-00-0-00-0-00-0-00-----|
|0-00-2-22-2-22-0-00-2-22-----|
|2-22-3-33-3-33-2-22-3-33-----|
|3-33-----------3-33----------|

|------------0h2--0---------0------------------|
|-------------------3---------3----------------|
|----------2--------------0-----0-----0--------|
|----0h2-0--------------2---------0h2----------|
|0h2------------------3------------------------|
|----------------------------------------------|

 v v^ v v^ v v^ v v^ v v^
|3-33-3-33-3-33-3-33-3-33-----|
|3-33-3-33-3-33-3-33-3-33-----|
|0-00-0-00-0-00-0-00-0-00-----|
|0-00-2-22-2-22-0-00-2-22-----|
|2-22-3-33-3-33-2-22-3-33-----|
|3-33-----------3-33----------|

|------------0h2--0---------0------------------|
|-------------------3---------3----------------|
|----------2--------------0-----0-----0--------|
|----0h2-0--------------2---------0h2----------|
|0h2------------------3------------------------|
|----------------------------------------------|

 v v^ v v^ v v^ v v^ v v^
|3-33-3-33-3-33-3-33-3-33-----|
|3-33-3-33-3-33-3-33-3-33-----|
|0-00-0-00-0-00-0-00-0-00-----|
|0-00-2-22-2-22-0-00-2-22-----|
|2-22-3-33-3-33-2-22-3-33-----|
|3-33-----------3-33----------|

|------------0h2--0---------0-----------2h3-2-----------0------------------|
|-------------------3---------3-------3-------3-----------3----------------|
|----------2--------------0-----0---2-----------2-----0-----0-----0--------|
|----0h2-0--------------2---------0-----------------2---------0h2----------|
|0h2------------------3---------------------------3------------------------|
|--------------------------------------------------------------------------|

                         _1____________________  _2_______________________
        (2x)            |                      ||                         |
 v v v^ v v  v  v  v v   v v v^ v  v             v v v^ v  v 
|7-7-77-5-7--7--7--5-5-||7-7-77-5--3~----------||7-7-77-5--3~--3----------|
|8-8-88-7-5--5--5--7-7-||8-8-88-7--3~----------||8-8-88-7--3~----3--------|
|7-7-77-7-5--5--5--7-7-||9-9-99-7--0~-------0--||9-9-99-7--0~----------0--|
|----------------------||----------2~---0h2----||----------2~------0h2----|
|----------------------||----------3~----------||----------3~-------------|
|----------------------||----------------------||-------------------------|


|----3--------------3--------------3----------------------|
|-------3--------------3--------------3-------------------|
|--0----------0---0----------0---0----------0-------------|
|---------0h2------------0h2------------0h2---------------|
|3--------------3--------------3--------------------------|
|---------------------------------------------------------|

 v ^ v ^ v    v v v  ^ v ^ v   v v v ^ v ^ v   v v v ^ v ^ v
|--3---3-3----3------3---3-3---3-----3---3-3---3-----3---3-3---------------|
|--3---3-3----3-0----3---3-3---3-0---3---3-3---3-0---3---3-3---------------|
|0-0-0-0-0----0-0-0--0-0-0-0---0-0-0-0-0-0-0---0-0-0-0-0-0-0---------------|
|0-0-0---0h2--2-0-0--0-0---0h2-2-0-0-0-0---0h2-2-0-0-0-0---0h2-------------|
|2---2---3----3---2----2---3---3---2---2---3---3---2---2---3---------------|
|3---3------------3----3-----------3---3-----------3---3-------------------|

|------------0h2--0---------0------------------|
|-------------------3---------3----------------|
|----------2--------------0-----0-----0--------|
|----0h2-0--------------2---------0h2----------|
|0h2------------------3------------------------|
|----------------------------------------------|

 v v^ v v^ v v^ v v^ v v^
|3-33-3-33-3-33-3-33-3-33-----|
|3-33-3-33-3-33-3-33-3-33-----|
|0-00-0-00-0-00-0-00-0-00-----|
|0-00-2-22-2-22-0-00-2-22-----|
|2-22-3-33-3-33-2-22-3-33-----|
|3-33-----------3-33----------|

|------------0h2--0---------0------------------|
|-------------------3---------3----------------|
|----------2--------------0-----0-----0--------|
|----0h2-0--------------2---------0h2----------|
|0h2------------------3------------------------|
|----------------------------------------------|

 v v^ v v^ v v^ v v^ v v^
|3-33-3-33-3-33-3-33-3-33-----|
|3-33-3-33-3-33-3-33-3-33-----|
|0-00-0-00-0-00-0-00-0-00-----|
|0-00-2-22-2-22-0-00-2-22-----|
|2-22-3-33-3-33-2-22-3-33-----|
|3-33-----------3-33----------|

        harm|----|
|-----------------|
|----------7------|
|------------7----|
|----0h2-0-----7--|
|0h2--------------|
|-----------------|

 v v^ v v^ v v^ v v^ v v^ v v^
|3-33-3-33-3-33-3-33-3-33-3-33|
|3-33-3-33-3-33-3-33-3-33-3-33|
|0-00-0-00-0-00-0-00-0-00-0-00|
|0-00-2-22-2-22-0-00-2-22-2-22|
|2-22-3-33-3-33-2-22-3-33-3-33|
|3-33-----------3-33----------|

 v  v  v  v ^
|2--2--2--2-2----|
|3--3--3--3-3----|
|2--2--2--2-2----|
|0--0--0--0-0----|
|----------------|
|----------------|

 v v v v v v v v v v v v  v^v^v^v^
|0-0-0-0-0-0-0-0-0-0-0-0--00000000---------------|
|1-1-1-1-1-1-1-1-1-1-1-1--11111111---------------|
|0-0-0-0-0-0-0-0-0-0-0-0--00000000---------------|
|2-2-2-2-2-2-2-2-2-2-2-2--22222222---------------|
|3-3-3-3-3-3-3-3-3-3-3-3--33333333---------------|
|------------------------------------------------|

 v v v^ v  v ^ v ^ v^v^ v ^ v ^ v v^ v ^  v ^  v v ^ v^ v v v v v v
|7-7-77-5--3-3-3-3-3333-3-3-3-3-3-33-2-3--3-2--2-3-3-33-2-3-3-3-2-2-|
|8-8-88-7--3-3-3-3-3333-3-3-3-3-3-33-3-3--3-3--3-3-3-33-3-3-3-3-3-3-|
|9-9-99-7--0-0-0-0-0000-0-0-0-0-0-00-2-0--0-2--2-0-0-00-2-0-0-0-2-2-|
|----------2-2-2-2-2222-2-2-2-0-0-00-0-2--2-0--0-0-0-00-0-2-2-2-0-0-|
|----------3-3-3-3-3333-3-3-3-2-2-22-0-3--3-0--0-2-2-22-0-3-3-3-0-0-|
|-----------------------------3-3-33-------------3-3-33-------------|

 v v v^ v v  v  v v v v v v^ v  v
|3-3-33-2-3--3--3-2-2-0-0-00-2--3~---------------|
|3-3-33-3-3--3--3-3-3-0-0-00-3--3~---------------|
|0-0-00-2-0--0--0-2-2-0-0-00-2--0~---------------|
|0-0-00-0-2--2--2-0-0-2-2-22-0--0~---------------|
|2-2-22-0-3--3--3-0-0-2-2-22-0--3~---------------|
|3-3-33---------------0-0-00---------------------|

HAVE FUN!!!!!

PLZ RATE

            
            
Suggest correction
Creating personal tab
Creating personal tab
You can edit any tab online and save it as your Personal.

You can edit, replace or remove any tab part or add personal notes – all changes will be seen only by you.

Personal tabs can be accessed anytime from any device, even offline.
Learn more »
comments
print report bad tab
5 comments total. Showing first comments.
+1 reply
sandpaper67 10 Sep 20, 2007 02:41 PM

I have no idea how people were giving you a 5 out of 5. No where in your tab does it say to put a capo on 1 and your chorus is totally off. I haven't been able to figure it out yet either but you're missing a lot of lower notes in it. It isn't just two high strings being played there...

-1 reply
sandpaper67 10 Sep 20, 2007 02:41 PM

Oh yeah, once you put the capo on 1 it sounds just perfect though... except the chorus is still messed.

-1 reply
Guitarmaster94 498 Sep 22, 2007 07:14 AM

omg ur rite, ill change it

guest
You may want to rate the tab now too:
select rating
Wanna post a correction for this tab? Suggest correction