Oops, an error
Loading. Please wait.

Bent Chords

version 5
version 5

Whole song

Interactive

308 views 6 this week
no commentswrite comment
1 2 3 4 5
2 more votes to show rating
add to favorites
×
Save as Personal and add changes to this tab that will be seen only by you. Learn more ›
×
You can save this tab as Personal to edit and correct it or add notes. All changes will be seen only by you. Learn more »
save as personal
new!
launch autoscroll
font size
0
reset
transpose
0
reset
simplify chords
display chords
guitar tuner
Autoscroll
slow
fast
+/-
esc
set tempo
stop
Author
Difficulty
Capo
intermediate
2nd fret
Strumming
There is no strumming pattern for this song yet. and get +5 IQ
lots of versions on here, and I will agree that capo 2nd 
ones sound great, however this is without the capo

intro:

  in F#m

the ^ indicates to start bent up to sound like that fret
and then release the bend to finish on the actual fret

e----------------------------------------------|
B----------------------------------------------|
G----------------------------------------------|
D--9^7-------7-9---10^9---10^9--7--6-----------|
A----6---7-9-------------------------7---7h9---|
E--------------------------------------9-------|

e------------------------------------|
B------------------------------------|
G------------------------------------|
D-------7-9---10^9---10^9--7--6------|
A---7-9-------------------------9-9--|
E------------------------------------|


F#m                       Bm
      If I fall along the way
E                            F#m
      Pick me up and dust me off
                                Bm
      and if I get too tired to make it
E                           F#m
      be my breath so I can walk

                           Bm
      If I need some other love
E                             F#m
      give me more than I can stand
                                     Bm
      and when my smile gets old and faded
E                            A
      wait around I'll smile again

                A/G#        F#m
      shouldn't be so complicated
                       Bm
      just hold me and then
           E
      just hold me again

A                         E
      can you help me I'm bent
                              D
      I'm so scared that I'll never
                   E
      get put back together
                         A
      you're breaking me in
                              F#m
      and this is how we will end
                      D
      with you and me    bent

 D----------
 A----------
 E----5--4--

F#m                             Bm
      If I couldn't sleep could you sleep
E                               F#m
      could you paint me better off
                                Bm
      could you sympathize with my needs
E                               A
      I know you think I need a lot

                A/G#               F#m
      I started out clean but I'm jaded
                      Bm
      just phoning it in
E
      just breaking the skin

A                         E
      can you help me I'm bent
                              D
      I'm so scared that I'll never
                   E
      get put back together
                         A
      you're breaking me in
                              F#m
      and this is how we will end
                      D
      with you and me    bent

F#m
F#m  D
F#m                 D
      start bending me
                 F#m
      It's never enough
             D
      I feel all your pieces
F#m                 D
      start bending me
                      B7/D#            D
      Keep bending me until I'm completely broken in

F#m is played over this riff

e------------------------------------------|
B------------------------------------------|
G------------------------------------------|
D-------7-9---10^9---10^9--7--6------------|
A---7-9-------------------------7---7h9----|
E----------------------------------9-------|

e------------------------------------------|
B------------------------------------------|
G------------------------------------------|
D-------7-9---10^9---10^9--7--6--7--6--4---|
A---7-9------------------------------------|
E------------------------------------------|


A               A/G#         F#m
      shouldn't be so complicated
                        Bm
      just touch me and then
E
      just touch me again

A                         E
      can you help me I'm bent
                              D
      I'm so scared that I'll never
                   E
      get put back together
                         A
      you're breaking me in
                              F#m
      and this is how we will end
                      D
      with you and me bending
          E
      without understanding, hell I'll go there again

A                         E
      can you help me I'm bent
                              D
      I'm so scared that I'll never
                   E
      get put back together
                         A
      you're breaking me in
                              F#m
      and this is how we will end
                      D
      with you and me    bent


Chords:

   F#m   Bm  E   A   D   A/G#  B7/D#
e|-2-----2---0---0---0---0-------------|
B|-2-----3---0---2---2---2-----0-------|
G|-2-----4---1---2---3---2-----2-------|
D|-4-----4---2---2---0---2-----1-------|
A|-4-----2---2---0---------------------|
E|-2---------0-----------4-------------|
Suggest correction
Give kudos to tab author, rate the tab!
1 2 3 4 5
comments
print report bad tab
guest
You may want to rate the tab now too:
select rating
Wanna post a correction for this tab? Suggest correction