Oops, an error
Loading. Please wait.

Bright Lights Bass Tab

version 1
version 1

Whole song

Interactive

5,056 views 6 this week
1 commentread comment
1 2 3 4 5
excellent!
x 3
add to favorites
launch autoscroll
font size
0
reset
guitar tuner
Autoscroll
slow
fast
+/-
esc
set tempo
stop
Help us to improve Ultimate-Guitar.com Take our survey!
×
Author
Difficulty
novice
song: Brightlight
artist: matchbox20
transcribed by: mark anthony gruspe
email: mgruspe@peoplesupport.com
       kramy_xxiii@yahoo.com

     She got outta town           on a railway new york
G|------------------------------------------------------|
D|------------------------------------------------------|
A|---------------------------------9--------------------|
E|-0-----------------7----------------------------------|

    bound                     took all except my name
G|------------------------------------------------------|
D|------------------------------------------------------|
A|------0-----------------------------------------------|
E|------------------------------0-------------------7---|

              another alien on broadway
G|------------------------------------------------------|
D|------------------------------------------------------|
A|------------------------------------------------------|
E|--------------7-------9---------0---------------------|

   some things in this world you just cant change
G|------------------------------------------------------|
D|------------------------------------------------------|
A|------------------------------------------------------|
E|-0------------------------------------------7---------|

   some things you cant see until it gets too late
G|------------------------------------------------------|
D|------------------------------------------------------|
A|------------------------------------------------------|
E|-9--------------------------------------------5-------|

   baby baby baby when all your love is gone
G|------------------------------------------------------|
D|------------------------------------------------------|
A|--------------------------------5---------------------|
E|-0----------------------------------------------------|

   hu will save me from all im up aganst out in dis world
G|------------------------------------------------------|
D|------------------------------------------------------|
A|------------------------------------------------------|
E|-----------------------5----------------------------0-|

  maybe maybe maybe youll find somethin thats enough
G|------------------------------------------------------|
D|------------------------------------------------------|
A|--------------------------------5---------------------|
E|-0----------------------------------------------------|

   to keep you      but if the bright lights dont
G|------------------------------------------------------|
D|------------------------------------------------------|
A|------------------------------------------------------|
E|-------------------------------5----------------------|

   receive you         you should turn your self around
G|------------------------------------------------------|
D|------------------------------------------------------|
A|------------------------------------------------------|
E|---------------------------------7--------------------|

 and come on home
G|-----------------|
D|-----------------|
A|-----------------|
E|-----------0-----|

Drums Enter

   I got a hole in me now
G|-----------------------------------------|
D|-----------------------------------------|
A|-----------------------------------------|
E|-0-000-000-00--7-777-777-77--------------|

   yeah i got a scar i can talk about
G|-----------------------------------------|
D|-----------------------------------------|
A|--9-999-999-99---------------------------|
E|-----------------------------5-555-555-55|

   And she keeps a picture of me
G|-----------------------------------------|
D|-----------------------------------------|
A|-----------------------------------------|
E|-0-000-00-00----------------7-777-777-77-|

  in her apartment in the city
G|-----------------------------------------|
D|-----------------------------------------|
A|-----------------------------------------|
E|----77--99------------7---55-555-55-55---|

  Some things in this world man they dont make sense
G|---------------------------------------------------|
D|---------------------------------------------------|
A|---------------------------------------------------|
E|-0-000-000-00--------------------------7-777-777-77|

 s0me things u dont nid until dey leave u....
G|--------------------------------------------------|
D|--------------------------------------------------|
A|-99-99-99999--------------------------------------|
E|------------------------------------5-555-55-5555-|

Chorus

 Baby baby baby wen all ur love is gone hu will save .....
G|--------------------------------------------------|
D|--------------------------------------------------|
A|---------------------------5-55-5555-55-----------|
E|-0-00-000-00-0------------------------------------|

  all im up against out in this world
G|--------------------------------------------------|
D|--------------------------------------------------|
A|--------------------------------------------------|
E|-7-77-777-77-------------------00-000-000-00------|

  maybe maybe maybe youll find somethin thats enough....
G|--------------------------------------------------|
D|--------------------------------------------------|
A|-----------------------------55-55-555-55---------|
E|-0-00-0000-0--------------------------------------|

  but if the bright lights dont recieve you
G|--------------------------------------------------|
D|--------------------------------------------------|
A|--------------------------------------------------|
E|-----------55-5-555-55-555-5----------------------|

  turn yourself around and come on home
G|--------------------------------------------------|
D|--------------------------------------------------|
A|--------------------------------------------------|
E|-7---------------------------------0--------------|

Bridge

 Let that city take you in   (come on home)
G|--------------------------------------------------|
D|--------------------------------------------------|
A|-4-4-4-4------------------------------------------|
E|---------7-7-7-7-5-5-5-5-5-5-5--------------------|

  Let that city spit you out      (come on home)
G|--------------------------------------------------|
D|--------------------------------------------------|
A|-4-4-4-4------------------------------------------|
E|---------7-7-7-7-5-5-5-5-5-5-5--------------------|

  Let that city take you down             yeah
G|--------------------------------------------------|
D|--------------------------------------------------|
A|-4-4-4-4-----------------5------------------------|
E|---------7-7-7-7-----------5-55-7--7\-------------|

  for gods sake turn around...

Solo

G|--------------------------------------------------|
D|--------------------------------------------------|
A|-7-777-77-777-5-555-555----------------7-----7----|
E|-----------------------5-555-55555-0-00-00-00-----|


*repeat chorus*

    turn yourself around girl come on home
G|--------------------------------------------------|
D|--------------------------------------------------|
A|--------------------------------------------------|
E|---777-777-777-777--------------------------------|

outro: 

G|----------------------------------------|
D|----------------------------------------|
A|-----7--7------0--0---------7-----0--0--|
E|-0-00-00--5-55--55--0-000-00--5-55-55---| *repeat as needed

G|----|
D|----|
A|----|
E|-0--|

 -end-

please rate it after. thnx.

*please dont copy and post this tab as yours. have some respect*
if u have comments or suggestions just email me kramy_xxiii@yahoo.com

*wag nio pong kopyahin tpos i-post it0ng tab n i2 n kunwari kyo ang gumawa*
if u have comments or suggestions just email me kramy_xxiii@yahoo.com


Suggest correction
What's this?
You can suggest a correction to this tab. Community and Mods will review your correction and vote to approve or reject it.
comments
We did not receive enough feedback on this tab! Please rate:
print report bad tab
1 2 3 4 5
1 comment total.
0 reply
m_prock 33 wrote on October 21 2013, 10:38 pm

I'm pretty sure the first verse is just a piano not bass

guest
You may want to rate the tab now too:
select rating
Please do not post tabs as comments. Select "correction" instead!