Oops, an error
Loading. Please wait.

Disease Bass Tab

version 1
version 1

Whole song

Interactive

2,542 views 3 this week
no commentswrite comment
1 2 3 4 5
accurate
x 3
add to favorites
launch autoscroll
font size
0
reset
guitar tuner
Tab Pro tools
  • play this tab
  • loop segment
  • change instrument
  • show fretboard
  • metronome
×
Best way to learn
"Disease"
Autoscroll
slow
fast
+/-
esc
set tempo
stop
Contributor
song: Disease
artist: Matchbox20
transcribed by: mark anthony gruspe
email:  mgruspe@peoplesupport.com
	kramy_xxiii@yahoo.com

intro: (after the guitar part)

(bass only & some guitar twingling effect)
                  s h s
G|----------------------------------|
D|----------------------------------|
A|----------------------------------|
E|----------------4/2\4-------------|
fils lyk u mde a mstke

                 ss h s
G|----------------------------------|
D|----------------------------------|
A|----------------------------------|
E|---------------44/2\4-------------|
u mde sumbdys heartbreak

                 s h s
G|----------------------------------|
D|----------------------------------|
A|---------------4/2\4--------------|
E|--------------4-------------------|
nw i have to let u go

                ss h s
G|----------------------------------|
D|----------------------------------|
A|----------------------------------|
E|--------------44/2\4--------------|
i have to let you go


verse1:

G|----------------------------------|
D|----------------------------------|
A|-------------444-44-----6666------|
E|--------44-44------44-44-------9/-|
u left a stain.....

G|----------------------------------|
D|------63--------------------------|
A|-44444--4--------666-66-----------|
E|----------444-444-----------------|
u know.........have to let u go....no one's ever

refrain:

G|----------------------------------|
D|----------------------------------|
A|-----------------444-44/7-7766-66-|
E|-0-0-02-22-44-444-----------------|
...............................heart

chorus:

G|---------------------------------------|
D|---------------------------------------|
A|-----------4--444-24-666-4666-466466---|
E|----4-44424--4---------------4------24-|
..disease............................bout it

G|----------------------------------|
D|----------------------------------|
A|------444-2444-66-466-666666------|
E|-444-4----------------------------|
  be be strong........wont take long

G|----------------------------------|
D|-------------------63-------------|
A|------------4444444--4------------|
E|----------------------------------|
free of my disease......

G|----------------------------------|
D|----------------------------------|
A|----------------------------------|
E|------------4444444---------------|
free of my disease......

G|----------------------------------|
D|-------------------63-------------|
A|------------4444444--4------------|
E|----------------------------------|
free of my disease......
                         h     h
G|----------------------------------|
D|----------------------------------|
A|------------6666666---4/666-4/666-|
E|----------------------------------|
free of my diseeaaase...ooooh......

verse2:
  
    s
G|----------------------------------|
D|----------------------------------|
A|-------------6666-----6-6666------|
E|-9/------4-44----4-444------------|
..mking a mess.....black dress.......


G|----------------------------------|
D|---------------63-----------------|
A|-----4444444-44--4-------666666---|
E|-9/---------------444-444---------|
.to the fire.....left me..burn......no one's ever

refrain:

G|----------------------------------|
D|----------------------------------|
A|-----------------444-44/7-7766-66-|
E|-0-0-02-22-44-444-----------------|
...............................heart.i got a

chorus:

G|---------------------------------------|
D|---------------------------------------|
A|-----------4--444-24-666-4666-466466---|
E|----4-44424--4---------------4------24-|
  disease............................bout it

G|----------------------------------|
D|----------------------------------|
A|------444-2444-66-466-666666------|
E|-444-4----------------------------|
be be strong........wont take long

G|----------------------------------|
D|----------------------------------|
A|------------------666-646---------|
E|------------444424-------4--------|
free of my disease......

G|----------------------------------|
D|----------------------------------|
A|------------------666-646---------|
E|------------444424-------4--------|
free of my disease......

                         h h     r~~~
G|----------------------------------|
D|----------------------------------|
A|------------------666-4/6\4-------|
E|------------444424-------------4--|
free of my disease......

    s
G|-----|
D|-----|
A|-6\--|
E|-----|

 -end-

*please dont copy and post this tab as yours. have some 

respect*
if u have comments or suggestions just email me 

mgruspe@peoplesupport.com

*wag nio pong kopyahin tpos i-post it0ng tab n i2 n 

kunwari kyo ang gumawa*
if u have comments or suggestions just email me 

mgruspe@peoplesupport.com

add me on friendster- kramy_xxiii@yahoo.com =p

iluvUmichelle.
*mmmmmmmwaaah*
miss u alwayz... =)
monday alwyz OT... 
..luvUluvUluvUluvU..
comments
We did not receive enough feedback on this tab! Please rate:
print report bad tab
1 2 3 4 5
I want to post or [tab]
guest
You may want to rate the tab now too:
select rating
Please do not post tabs as comments. Select "correction" instead!