Oops, an error
Loading. Please wait.

Downfall Bass Tab

431 views 6 this week
no commentswrite comment
1 2 3 4 5
please rate
add to favorites
launch autoscroll
font size
0
reset
guitar tuner
Autoscroll
slow
fast
+/-
esc
set tempo
stop
Help us to improve Ultimate-Guitar.com Take our survey!
×
Author
Difficulty
intermediate
This is my first tab, its not exact but its a good guideline I find,
 which is good so everyone can add there own touch to it, please feel
 free to give me feedback or if you have any corrections......enjoy.


Verse
G|-----------------------------------------------------------------|
D|----5------5-----------------------------------------5-----------|
A|--77-577-77-577--7/555355-555355-5-----------------77-577-555355-| 
E|-----------------------------------555355-555355-5---------------|
                                       

    The notes in the brackets, I have no clue what he does there, 
I just make a little run play it differently every time i'm sure lol
G|--------------------------------------------------------------------|
D|----5------5-------------------------------------------------5------|
A|--77-577-77-577---------------------------------------------7-57)---|
E|-----------------555355-555355--12333333333333--55-55-55-(57--------|


Chorus
G|------------------------------------------------------------------|
D|------------------------------------------------------------------|
A|--757777777777777-3333333333333333------------------55-33-22-00-77|
E|-----------------------------------3333333333333333---------------|
Suggest correction
Give kudos to tab author, rate the tab!
1 2 3 4 5
comments
print report bad tab
guest
You may want to rate the tab now too:
select rating
Wanna post a correction for this tab? Suggest correction