Oops, an error
Loading. Please wait.

English Town Bass Tab

625 views 1 this week
no commentswrite comment
1 2 3 4 5
please rate
add to favorites
launch autoscroll
font size
0
reset
guitar tuner
Tab Pro tools
  • play this tab
  • loop segment
  • change instrument
  • show fretboard
  • metronome
×
Best way to learn
"English Town"
Autoscroll
slow
fast
+/-
esc
set tempo
stop
Contributor
Difficulty
Tuning
intermediate
D A D G B E
English Town
Matchbox Twenty

Tabbed by thefletch13

Drop D tuning


Verse 1
No bass


Chorus
G|-------------------------------------------------------|
D|--------------------------------------0---0------------|
A|-0---0---2--3---3---3/7-----------------------3-2------|
D|-------------------------3---3---3-2--------------5----|


Verse 2
G|----------------------------------------|
D|----------5-5-5-5--3-3-3-3-3-3--0-0-----|
A|-0-0-0-0--------------------------------|
D|----------------------------------------|


Chorus
G|-------------------------------------------------------|
D|--------------------------------------0---0------------|
A|-0---0---2--3---3---3/7-----------------------3-2------|
D|-------------------------3---3---3-2--------------5----|


Bridge
G|------------------------------------------------------------|
D|------------------------------------------------------------|
A|-----------------------3p0-----------------------3p0--------|
D|-3--3--3--3--3--3--5h7-----5--5--5--5--5--5--5h7------------|

G|------------------------------------------------------------|
D|------------------------------------------------------------|
A|-----------------------3p0----------------------------------|
D|-3--3--3--3--3--3--5h7-----5--5--5--5--5-5-5-5-5-5-5-5------|


Guitar Solo
G|-------------------------------------------|
D|-------------------------------------------|
A|-------------------------------------------|
D|-7--77--77--7-7-7-7--5--55--55--5-5-5-5----|

G|-------------------------------------------|
D|-------------------------------------------|
A|---------------------5--55--55--5-5-5-5----|
D|-3--33--33--3-3-3-3------------------------|

G|-------------------------------------------|
D|-------------------------------------------|
A|-------------------------------------------|
D|-7--77--77--7-7-7-7--5--55--55--5-5-5-5----|

G|-------------------------------------------|
D|-------------------------------------------|
A|-------------------------------------------|
D|-3--33--33--3-3-3-3--0-0-0-0-0-0-0-0-------|

G|-------------------------------------------|
D|----------5~~--------3~~~~-----------------|
A|-0~~---------------------------------------|
D|-------------------------------------------|


Final Chorus/Outro
G|------------------------------------------------------------------------|
D|------------------------------------------------------------------------|
A|----------------------------------------------------5-5-5-5-5-5-5-5-----|
D|-7-7-7-7-7-7-7-7--5-5-5-5-5-5-5-5--3-3-3-3-3-3-3-3----------------------|

G|------------------------------------------------------------------------|
D|------------------------------------------------------------------------|
A|------------------------------------------------------------------------|
D|-7-7-7-7-7-7-7-7--5-5-5-5-5-5-5-5--3-3-3-3-3-3-3-3--0-0-0-0-0-0-0-0-----|


G|--------------|
D|--------------|
A|-0~~~---------|
D|--------------|
comments
We did not receive enough feedback on this tab! Please rate:
print report bad tab
1 2 3 4 5
I want to post or [tab]
guest
You may want to rate the tab now too:
select rating
Please do not post tabs as comments. Select "correction" instead!