Oops, an error
Loading. Please wait.

Feel Tab

version 1
version 1

Intro

Whole song

Interactive

3,974 views 6 this week
6 commentsread comments
1 2 3 4 5
excellent!
x 4
add to favorites
launch autoscroll
font size
0
reset
how to read this tab
guitar tuner
Autoscroll
slow
fast
+/-
esc
set tempo
stop
Help us to improve Ultimate-Guitar.com Take our survey!
×
Contributor
e|--------------------------------------------------------------------------|
B|--------------------------------------------------------------------------|
G|--2-2-2-------------------------------------------------------------------|
D|--2-2-2-------------------------------------------------------------------|
A|--0-0-0--3-3-3-3-3-3-----------3-0----------------------------------------|
E|--0-0-0--------------2---2-0-3-----3--------------------------------------|

Play this about three times before starting into the verse.

*This is my first tab. Hope you like it. L8er*
comments
print report bad tab
6 comments total. Showing first comments.
0 reply
Spazoflife 30 wrote on November 11 2006, 10:14 pm

Great base, but is should be:
------------------------------
2 22 2------------------------
2 22 2------------------------
0 00 0333333---------30-------
------------2--2203-3--3------

0 reply
XMAGuitarist182 84 wrote on October 3 2010, 10:46 pm

I just logged into my account for the first time since I posted this tab. That was in October of 2004. I was fourteen then. I am now twenty.

"*This is my first tab. Hope you like it. L8er*"

I can't believe I spelled later as "l8er." And "XMAGuitarist182?" A Blink 182 reference and an Extreme Martial Arts Reference in my username?

Wow, how times have changed.

Thanks for the correction, Spazoflife. (Four years later). I imagine I'll log in five years from now and realize how odd my writing style is at this moment, and how much it will have changed.

I'm holding you to it, XMAGuitarist182 of the future.

:)

0 reply
XMAGuitarist182 84 wrote on October 17 2011, 04:06 pm

Hey, XMAGuitarist back again. I think I am going to turn this into a project. Seven years ago, I posted this tab. Roughly a year ago, I posted a follow-up comment. Once a year, in October, I will come back. I doubt anyone will notice or care, but this kind of stuff intrigues me.

Thanks for reading.

:)

I want to post or [tab]
guest
You may want to rate the tab now too:
select rating
Please do not post tabs as comments. Select "correction" instead!