Oops, an error
Loading. Please wait.

How Far We've Come Tab

version 3
version 3

Interactive

7,236 views 12 this week
2 commentsread comments
1 2 3 4 5
excellent!
x 3
add to favorites
launch autoscroll
font size
0
reset
how to read this tab
guitar tuner
Autoscroll
slow
fast
+/-
esc
set tempo
stop
Help us to improve Ultimate-Guitar.com Take our survey!
×
Author
Difficulty
intermediate
Okay, this may look really hard, but its simple.  The only thing that changes is 
the Guitar 1 part...  Everything is pretty much perfect, except for maybe the 
Break and Chorus; you need to listen to the song deeply to get the right timing.

|INTRO|
Guitar 1 (Electric)
E|----------------|-----------------|----------------|----------------|
B|-55-555-555-555-|-555-555-555-333-|-555-555-555-555|-666-666-666-666|
G|-55-555-555-555-|-555-555-555-444-|-555-555-555-555|-555-555-555-555|
D|----------------|-----------------|----------------|----------------|
A|----------------|-----------------|----------------|----------------|
E|----------------|-----------------|----------------|----------------|
   .. ... ... ... ... ... ... ...     ... ... ... ...  ... ... ... ...
Guitar 2 (Acoustic)
   C           G          Am         F
E|-0-----------3-----------0-----------1-----------|
B|-1-----------0-----------1-----------1-----------|
G|-0-(16 times)0-(16 times)2-(16 times)2-(16 times)|
D|-2-----------0-----------2-----------3-----------|
A|-3-----------2-----------0-----------0-----------|
E|-0-----------3-----------0-----------0-----------|
OPTIONAL Guitar 3 (Electric)
E|-------------------------------------------------|
B|-------------------------------------------------|
G|-5-----------------------------------------------|
D|-5-(16 times)5-----------7-----------3-----------|
A|-3-----------5-(16 times)7-(16 times)3-(16 times)|
E|-------------3-----------5-----------1-----------|

|VERSE|
Guitar 2 (Acoustic)
   C           G          Am         F
E|-0-----------3-----------0-----------1-----------|
B|-1-----------0-----------1-----------1-----------|
G|-0-(16 times)0-(16 times)2-(16 times)2-(16 times)| x2
D|-2-----------0-----------2-----------3-----------|
A|-3-----------2-----------0-----------0-----------|
E|-0-----------3-----------0-----------0-----------|
OPTIONAL Guitar 3 (Electric)
E|-------------------------------------------------|
B|-------------------------------------------------|
G|-5-----------------------------------------------| x2
D|-5-(16 times)5-----------7-----------3-----------|
A|-3-----------5-(16 times)7-(16 times)3-(16 times)|
E|-------------3-----------5-----------1-----------|

|CHORUS|
Guitar 1 (Electric)
E|--------------|--------------|--------------|--------------|
B|---8--------5-|---8--------5-|---8-------76-|---8-------76-|
G|-5---55-5557--|-5---55-5557--|-5---55-555---|-5---55-555---|
D|--------------|--------------|--------------|--------------|
A|--------------|--------------|--------------|--------------|
E|--------------|--------------|--------------|--------------| 
 
E|--------------|--------------|--------------|--------------|
B|---8--------5-|---8-------76-|---8-------76-|---8--------5-|
G|-5---55-5557--|-5---55-555---|-5---55-555---|-5---55-5557--|
D|--------------|--------------|--------------|--------------|
A|--------------|--------------|--------------|--------------|
E|--------------|--------------|--------------|--------------|
Guitar 2 (Acoustic)
   Am          F           C           G
E|-0-----------1-----------0-----------3-----------|
B|-1-----------1-----------1-----------0-----------|
G|-2-(16 times)2-(16 times)0-(16 times)0-(16 times)| x2
D|-2-----------3-----------2-----------0-----------|
A|-0-----------0-----------3-----------2-----------|
E|-0-----------0-----------0-----------3-----------|
OPTIONAL Guitar 3 (Electric)
E|-------------------------------------------------|
B|-------------------------------------------------|
G|-------------------------5-----------------------| x2
D|-7-(16 times)3-----------5-----------5-----------|
A|-7-----------3-(16 times)3-(16 times)5-(16 times)|
E|-5-----------1-----------------------3-----------|

|VERSE|
Guitar 1 (Electric)
E|----------------|-----------------|----------------|----------------|
B|-55-555-555-555-|-555-555-333-333-|-555-555-555-555|-666-666-666-666|
G|-55-555-555-555-|-555-555-444-444-|-555-555-555-555|-555-555-555-555|
D|----------------|-----------------|----------------|----------------|
A|----------------|-----------------|----------------|----------------|
E|----------------|-----------------|----------------|----------------|
   .. ... ... ... ... ... ... ...     ... ... ... ...  ... ... ... ...
E|----------------|-----------------|----------------|----------------|
B|-555-555-555-555|-333-333-333-333-|-555-555-555-555|-666-666-666-666|
G|-555-555-555-555|-555-555-444-444-|-555-555-555-555|-555-555-555-555|
D|----------------|-----------------|----------------|----------------|
A|----------------|-----------------|----------------|----------------|
E|----------------|-----------------|----------------|----------------|
   .. ... ... ...   ... ... ... ...   ... ... ... ...  ... ... ... ...
Guitar 2 (Acoustic)
   C           G          Am         F
E|-0-----------3-----------0-----------1-----------|
B|-1-----------0-----------1-----------1-----------|
G|-0-(16 times)0-(16 times)2-(16 times)2-(16 times)| x2
D|-2-----------0-----------2-----------3-----------|
A|-3-----------2-----------0-----------0-----------|
E|-0-----------3-----------0-----------0-----------|
OPTIONAL Guitar 3 (Electric)
E|-------------------------------------------------|
B|-------------------------------------------------|
G|-5-----------------------------------------------| x2
D|-5-(16 times)5-----------7-----------3-----------|
A|-3-----------5-(16 times)7-(16 times)3-(16 times)|
E|-------------3-----------5-----------1-----------|

|CHORUS|
Guitar 1 (Electric)
E|--------------|--------------|--------------|--------------|
B|---8--------5-|---8--------5-|---8-------76-|---8-------76-|
G|-5---55-5557--|-5---55-5557--|-5---55-555---|-5---55-555---|
D|--------------|--------------|--------------|--------------|
A|--------------|--------------|--------------|--------------|
E|--------------|--------------|--------------|--------------| 
 
E|--------------|--------------|--------------|--------------|
B|---8--------5-|---8-------76-|---8-------76-|---8--------5-|
G|-5---55-5557--|-5---55-555---|-5---55-555---|-5---55-5557--|
D|--------------|--------------|--------------|--------------|
A|--------------|--------------|--------------|--------------|
E|--------------|--------------|--------------|--------------|
Guitar 2 (Acoustic)
   Am          F           C           G
E|-0-----------1-----------0-----------3-----------|
B|-1-----------1-----------1-----------0-----------|
G|-2-(16 times)2-(16 times)0-(16 times)0-(16 times)| x2
D|-2-----------3-----------2-----------0-----------|
A|-0-----------0-----------3-----------2-----------|
E|-0-----------0-----------0-----------3-----------|
OPTIONAL Guitar 3 (Electric)
E|-------------------------------------------------|
B|-------------------------------------------------|
G|-------------------------5-----------------------| x2
D|-7-(16 times)3-----------5-----------5-----------|
A|-7-----------3-(16 times)3-(16 times)5-(16 times)|
E|-5-----------1-----------------------3-----------|

|BRIDGE|
E|--5--5--5--5--5--5---------|--5--5--5--5--5--5---------|
B|-5-88-55-88-55-88-55-565-5-|-5-88-55-88-55-88-55-5-----|
G|--------------------7---7--|--------------------7-754--|
D|---------------------------|-------------------------7-|
A|---------------------------|---------------------------|
E|---------------------------|---------------------------|
 (Faint)
E|--------------------------|----------------------------|
B|5-5555-88/5-5555-88-555-55|3h555-555-3h5p3h5-3h5p3h555-|Repeat 2nd
G|--------------------------|----------------------------|half until
D|--------------------------|----------------------------|end of Bridge
A|--------------------------|----------------------------|
E|--------------------------|----------------------------|

                            |-------------|
                            |-------------|
     Last measure of Bridge:|-------------|
    “Now its over for me...”|-5555-77-9~~-|
                            |-5555-77-9~~-|
                            |-3333-55-7~~-|

|CHORUS|
Guitar 1 (Electric)
E|--------------|--------------|--------------|--------------|
B|--------------|--------------|--------------|--------------|
G|--------------|--------------|-5------57975-|-7--------540-| x2
D|-7------------|-3------------|-x------xxxxx-|-x--------xxx-|
A|-x------------|-x------------|-3------35753-|-5--------32x-|
E|-5------------|-1------------|--------------|------------3-| 
Guitar 2 (Acoustic)
   Am          F           C           G
E|-0-----------1-----------0-----------3-----------|
B|-1-----------1-----------1-----------0-----------|
G|-2-(16 times)2-(16 times)0-(16 times)0-(16 times)| x2
D|-2-----------3-----------2-----------0-----------|
A|-0-----------0-----------3-----------2-----------|
E|-0-----------0-----------0-----------3-----------|
OPTIONAL Guitar 3 (Electric)
E|-------------------------------------------------|
B|-------------------------------------------------|
G|-------------------------5-----------------------| x2
D|-7-(16 times)3-----------5-----------5-----------|
A|-7-----------3-(16 times)3-(16 times)5-(16 times)|
E|-5-----------1-----------------------3-----------|

|OUTRO| “Lets see how far we’ve come...”
Guitar 2 (Acoustic)
   C           G          Am         F
E|-0-----------3-----------0-----------1-----------|
B|-1-----------0-----------1-----------1-----------|
G|-0-(16 times)0-(16 times)2-(16 times)2-(16 times)|
D|-2-----------0-----------2-----------3-----------|
A|-3-----------2-----------0-----------0-----------|
E|-0-----------3-----------0-----------0-----------|
OPTIONAL Guitar 3 (Electric)
E|-------------------------------------------------|
B|-------------------------------------------------|
G|-5-----------------------------------------------|
D|-5-(16 times)5-----------7-----------3-----------|
A|-3-----------5-(16 times)7-(16 times)3-(16 times)|
E|-------------3-----------5-----------1-----------|
Guitar 1 (Electric) Last measure
E|-------------|
B|-------------|
G|-------------|
D|-3-5-7-9-12--|
A|-x-x-x-x-xx--|
E|-1-3-5-7-10--|

Guitar (Electric)
E|--------------|--------------|--------------|--------------|
B|--------------|--------------|--------------|--------------|
G|-5------57975-|-7--------540-|-2------24542-|--------------|
D|-x------xxxxx-|-x--------xxx-|-x------xxxxx-|-3-5-7-9-10~~-|
A|-3------35753-|-5--------32x-|-0------02320-|-x-x-x-x-x~~~-|
E|--------------|------------3-|--------------|-1-3-5-7-8~~~-|
Guitar 2 (Acoustic)
   C           G          Am         F
E|-0-----------3-----------0-----------111111111~~~|
B|-1-----------0-----------1-----------111111111~~~|
G|-0-(16 times)0-(16 times)2-(16 times)222222222~~~|
D|-2-----------0-----------2-----------333333333~~~|
A|-3-----------2-----------0-----------000000000~~~|
E|-0-----------3-----------0-----------000000000~~~|
OPTIONAL Guitar 3 (Electric)
E|-------------------------------------------------|
B|-------------------------------------------------|
G|-5-----------------------------------------------|
D|-5-(16 times)5-----------7-----------333333333~~~|
A|-3-----------5-(16 times)7-(16 times)333333333~~~|
E|-------------3-----------5-----------111111111~~~|
Suggest correction
What's this?
You can suggest a correction to this tab. Community and Mods will review your correction and vote to approve or reject it.
comments
We did not receive enough feedback on this tab! Please rate:
print report bad tab
1 2 3 4 5
2 comments total.
0 reply
nicnjack 13 wrote on October 16 2009, 05:26 pm

Wow, another great tab. *****

0 reply
softballchic 21 wrote on October 16 2009, 05:28 pm

Finally some1 tells us what guitar is played.

guest
You may want to rate the tab now too:
select rating
Please do not post tabs as comments. Select "correction" instead!