Oops, an error
Loading. Please wait.

How Far We've Come Tab

version 5
version 5

Interactive

1,386 views 1 this week
no commentswrite comment
1 2 3 4 5
please rate
add to favorites
launch autoscroll
font size
0
reset
how to read this tab
guitar tuner
Autoscroll
slow
fast
+/-
esc
set tempo
stop
Help us to improve Ultimate-Guitar.com Take our survey!
×
Author
Difficulty
-------------------------------------------------------------------------------
                             HOW FAR WE'VE COME - Matchbox 20
-------------------------------------------------------------------------------
Tabbed by: Ian Britz
Email: Bookworm_nai_868@yahoo.com

Tuning: Standard


*******************
Intro
*******************

Guitar 1 (Clean)
 
e|------------------------------------------------------------|
B|(Fade in)---------------------------------------------------|
G|---(9)----99-999-999-999-977-777-777-777-799-999-999-999----|
D|---(x)----xx-xxx-xxx-xxx-xxx-xxx-xxx-xxx-xxx-xxx-xxx-xxx----|
A|---(7)----77-777-777-777-755-555-555-555-577-777-777-777----|
E|------------------------------------------------------------|

e|------------------------------------|
B|------------------------------------|
G|--91010-101010-101010-1010101010----|
D|--x-x-x--x-x-x--x-x-x--x-x-x-x-x----|
A|--7-8-8--8-8-8--8-8-8--8-8-8-8-8----|
E|------------------------------------|

Guitar 2 (Clean)

e|-------------------------------------------------------------------------|
B|-------------------------------------------------------------------------|
G|--5555555555555555-------------------------------------------------------|
D|--5555555555555555-5555555555555555-7777777777777777-3333333333333333----|
A|--3333333333333333-5555555555555555-7777777777777777-3333333333333333----|
E|-------------------3333333333333333-5555555555555555-1111111111111111----|


*******************
Verse
*******************

Guitar 1 (Clean)

e|---------------------------------------------------------|
B|---------------------------------------------------------|
G|--9999999999999999-7777777777777777-9999999999999999-----|
D|--xxxxxxxxxxxxxxxx-xxxxxxxxxxxxxxxx-xxxxxxxxxxxxxxxx-----|
A|--7777777777777777-5555555555555555-7777777777777777-----|
E|---------------------------------------------------------|

e|---------------------------------------|
B|---------------------------------------|
G|--10101010101010101010101010101010----o|
D|---x-x-x-x-x-x-x-x-x-x-x-x-x-x-x-x----o|
A|---8-8-8-8-8-8-8-8-8-8-8-8-8-8-8-8-----|
E|---------------------------------------|

Guitar 2 (Clean)

e|-------------------------------------------------------------------------|
B|-------------------------------------------------------------------------|
G|--5555555555555555------------------------------------------------------o|
D|--5555555555555555-5555555555555555-7777777777777777-3333333333333333---o|
A|--3333333333333333-5555555555555555-7777777777777777-3333333333333333----|
E|-------------------3333333333333333-5555555555555555-1111111111111111----|


*********************
Chorus
*********************

Guitar 1 (Distorted)

e|----------------------------------------------------------------------|
B|----------------------------------------------------------------------|
G|----------------------------------5-555-555-555555-------------------o|
D|--7-777-777-7777773-333-333-3333335-555-555-5555555-555-555-555555---o|
A|--7-777-777-7777773-333-333-3333333-333-333-3333335-555-555-555555----|
E|--5-555-555-5555551-111-111-111111----------------3-333-333-333333----|

Guitar 2 (Clean)

e|----------------------------------------------------------------------|
B|----------------------------------------------------------------------|
G|----------------------------------5-555-555-555555-------------------o|
D|--7-777-777-7777773-333-333-3333335-555-555-5555555-555-555-555555---o|
A|--7-777-777-7777773-333-333-3333333-333-333-3333335-555-555-555555----|
E|--5-555-555-5555551-111-111-111111----------------3-333-333-333333----|


Repeat Verse

Repeat Chorus


*****************
Bridge Part 1
*****************

Guitar 1 (Clean)

e|-----------------------------------------------------------------|
B|--10-8--8-10-----10-8--8-10-----10-8--8-10-----------------------|
G|------------9---9----------9---9----------9---9-7-9-10-9-7-------|
D|-----------------------------------------------------------------|
A|-----------------------------------------------------------------|
E|-----------------------------------------------------------------|
                                                                   |
Guitar 2 (Clean)                                                   |
                                                                   |
e|-----------------------------------------------------------------|
B|-----------------------------------------------------------------|
G|----------------------------------------------141414141414-------|
D|-----------------------------------------------x-x-x-x-x-x-------|
A|----------------------------------------------121212121212-------|
E|-----------------------------------------------------------------|


Guitar 1 (Clean)

e|-----------------------------------------------------------------|
B|--10-8--8-10-----10-8--8-10-----10-8--8-10-----------------------|
G|------------9---9----------9---9----------9---9-7-9-10-9-7-------|
D|-----------------------------------------------------------------|
A|-----------------------------------------------------------------|
E|-----------------------------------------------------------------|
                                                                   |
Guitar 2 (Clean)                                                   |
                                                                   |
e|-----------------------------------------------------------------|
B|-----------------------------------------------------------------|
G|----------------141414141414-------------------------------------|
D|-----------------x-x-x-x-x-x-------------------------------------|
A|----------------121212121212-------------------------------------|
E|-----------------------------------------------------------------|


*****************
Bridge Part 2
*****************

Guitar 1 (Clean, palm-muted)

(Repeat twice)
e|-----------------------------------------------------------------|
B|-----------------------------------------------------------------|
G|--9999999999999999-77777777-1010101010101010---------------------|
D|-----------------------------------------------------------------|
A|-----------------------------------------------------------------|
E|-----------------------------------------------------------------|
    
(Fourth time through)
e|----------------------------------------------8-8-----10-10-8-8-10.--|
B|--9999999999999999-77777777--9-9-7-7-10-10-9-9---10-10---------------|
G|---------(Realease pm)------(Add distortion)-------------------------|
D|---------------------------------------------------------------------|
A|---------------------------------------------------------------------|
E|---------------------------------------------------------------------|
                                                                       |
Guitar 2 (Distorted)                                                   |
                                                                       |
e|---------------------------------------------------------------------|
B|---------------------------------------------------------------------|
G|---------------------------------------------------------------------|
D|-------------------------------7-7-7-7-7-7-7-7-7-7-7-7-7-7-7-7-7-7.--|
A|-------------------------------7-7-7-7-7-7-7-7-7-7-7-7-7-7-7-7-7-5.--|
E|-------------------------------5-5-5-5-5-5-5-5-5-5-5-5-5-5-5-5-5-5.--|


Repeat Chorus


*****************
Chorus 2
*****************

Guitar 1 (Distorted)

e|--------------------------------------------------------------------|
B|--------------------------------------------------------------------|
G|--5-555-555-555555--------------------------------------------------|
D|--5-555-555-5555555-555-555-5555557-777-777-7777773-333-333-333333--|
A|--3-333-333-3333335-555-555-5555557-777-777-7777773-333-333-333333--|
E|------------------3-333-333-3333335-555-555-5555551-111-111-111111--|
                                                                      |
Guitar 2 (Clean)                                                      |
                                                                      |
e|--------------------------------------------------------------------|
B|--------------------------------------------------------------------|
G|--5-555-555-555555--------------------------------------------------|
D|--5-555-555-5555555-555-555-5555557-777-777-7777773-333-333-333333--|
A|--3-333-333-3333335-555-555-5555557-777-777-7777773-333-333-333333--|
E|------------------3-333-333-3333335-555-555-5555551-111-111-111111--|


Guitar 1 (Distorted)

e|------------------------------------------------------------------------|
B|-----------------------------------------------------------------(Clean)|
G|--5-555-555-555555--------------------------------------------------5---|
D|--5-555-555-5555555-555-555-5555557-777-777-7777773333333333333333--5~--|
A|--3-333-333-3333335-555-555-5555557-777-777-7777773333333333333333--3~--|
E|------------------3-333-333-3333335-555-555-5555551111111111111111------|
                                                                          |
Guitar 2 (Clean)                                                          |
                                                                          |
e|------------------------------------------------------------------------|
B|------------------------------------------------------------------------|
G|--5-555-555-555555--------------------------------------------------5~--|
D|--5-555-555-5555555-555-555-5555557-777-777-7777773333333333333333--5~--|
A|--3-333-333-3333335-555-555-5555557-777-777-7777773333333333333333--3~--|
E|------------------3-333-333-3333335-555-555-5555551111111111111111------|


Key
************************************

| .   staccatto
| /   slide up
| \   slide down
| h   hammer-on
| p   pull-off
| ~   vibrato
| +   harmonic
| x   dead note
| b   bend

************************************
Suggest correction
What's this?
You can suggest a correction to this tab. Community and Mods will review your correction and vote to approve or reject it.
comments
We did not receive enough feedback on this tab! Please rate:
print report bad tab
1 2 3 4 5
guest
You may want to rate the tab now too:
select rating
Please do not post tabs as comments. Select "correction" instead!