Oops, an error
Loading. Please wait.

Parade tab

version 2
version 2

Whole song

1,249 views 15 this week
no commentswrite comment
1 2 3 4 5
2 more votes to show rating
add to favorites
×
Save as Personal and add changes to this tab that will be seen only by you. Learn more ›
×
You can save this tab as Personal to edit and correct it or add notes. All changes will be seen only by you. Learn more »
launch autoscroll
font size
0
reset
how to read this tab
guitar tuner
edit
Autoscroll
slow
fast
+/-
esc
set tempo
stop
Author
Difficulty
-------------------------------------------------------------------------------
                             PARADE - Matchbox Twenty
-------------------------------------------------------------------------------
Tabbed by: Docter60


Tuning: Standard



Most of the tab has single digit fretting except for the solo and the 2nd bridge, 
which are spaced out for the double digit frets.

As for the lyrics, I may add them in later.

Intro:

e|-----0--------------------------|
B|-3-3---3-3-3---3-3-3-3-3-3-3-3-3|
G|--0-0-0---0-050---0-0-0-0-0-0-0-|     x2
D|2-------------------------------|
A|--------3-----------------------|
E|----------------3---------------|



Verses 1 and 2:


e|-----0--------------------------|
B|-3-3---3-3-3---3-3-3-3-3-3-3-3-3|
G|--0-0-0---0-050---0-0-0-0-0-0-0-|     x2
D|2-------------------------------|
A|--------3-----------------------|
E|----------------3---------------|



e|-----0--------------------------|
B|-3-3---3-3-3---3-3-3-3-3-3-3-3-3|
G|--0-0-0---0-050---0-0-0---0-0-0-|     x1
D|2-----------------------4-------|
A|--------3-----------------------|
E|----------------3---------------|



e|-----0--------------------------|
B|-3-3---3-3-3---3-3-3-3-3-3-3-3-3|
G|--0-0-0---0-050---0-0-0-0-0-0-0-|     x1
D|2-------------------------------|
A|--------3-----------------------|
E|----------------3---------------|



Pre-Chorus:



e|33333333555577777777777777777777|
B|00000000333388888888888888888888|
G|00000000222200000000000000000000|     x2
D|--------------------------------|
A|--------------------------------|
E|--------------------------------|



Chorus:



e|77777777888877773333333355555555|
B|00000000----00000000000055555555|
G|--------5555----0000000022222222|     x2
D|--------------------------------|
A|--------------------------------|
E|--------------------------------|

*Note*The 2nd time you play the chorus, skip the second part below and go to Climb/Bridge *Note*

e|-3--3--3--3----|
B|-0--0--0--0----|
G|-0--0--0--0----|     x1
D|---------------|
A|---------------|
E|3--3--3--3-----|




Crossover to Verse 3:



e|-----0--------------------------|
B|-3-3---3-3-3---3-3-3-3-3-3-3-3-3|
G|--0-0-0---0-050---0-0-0-0-0-0-0-|     x1
D|2-------------------------------|
A|--------3-----------------------|
E|----------------3---------------|



Verse 3:



e|-----0--------------------------|
B|-3-3---3-3-3---3-3-3-3-3-3-3-3-3|
G|--0-0-0---0-050---0-0-0-0-0-0-0-|     x1
D|2-------------------------------|
A|--------3-----------------------|
E|----------------3---------------|



e|-----0-------------------3--2--0|
B|-3-3---3-3-3---3-3-3-3-3---3-3--|
G|--0-0-0---0-050---0-0-0-0-0---0-|     x1
D|2-------------------------------|
A|--------3-----------------------|
E|----------------3---------------|



e|-----0--------------------------|
B|-3-3---3-3-3---3-3-3-3-3-3-3-3-3|
G|--0-0-0---0-050---0-0-0---0-0-0-|     x1
D|2-----------------------4-------|
A|--------3-----------------------|
E|----------------3---------------|



e|-----0--------------------------|
B|-3-3---3-3-3---3-3-3-3-3-3-3-3-3|
G|--0-0-0---0-050---0-0-0-0-0-0-0-|     x1
D|2-------------------------------|
A|--------3-----------------------|
E|----------------3---------------|



Climb/Bridge:



e|-3--3--3--3-----3--3--3--3----3--3---|
B|-0--0--0--0-----0--0--0--0----0--0---|
G|-0--0--0--0-----0--0--0--0----0--0---|     x1
D|-------------------------------------|
A|-------------------------------------|
E|3--3--3--3-----3--3--3--3----3--3----|



Solo:
*Note*Last note in the Solo is on the first beat in the chorus*Note*


e|12-12-12----------10---10-----------------12-12-12----------10---10-------------|
B|---------12-12-12---------10-12-13-12-8------------12-12-12---------10-12-13-12-|
G|--------------------------------------------------------------------------------|
D|--------------------------------------------------------------------------------|
A|--------------------------------------------------------------------------------|
E|--------------------------------------------------------------------------------|



e|--12-12-12-12----------10--10----------------|
B|--------------12-12-12--------10-12-13-12-8--|
G|---------------------------------------------|
D|---------------------------------------------|
A|---------------------------------------------|
E|---------------------------------------------|



e|------------------------------------10--12|
B|8-8-8-7-7-7-10-10-10-10-10-10-10-12-------|
G|------------------------------------------|
D|------------------------------------------|
A|------------------------------------------|
E|------------------------------------------|




2nd Bridge/Chorus:


e|-7-7-7-7-7-7-7-7-8-8-8-15-15-15-14-14-10-10-10-10-10-10-10-10-5-5-5-5-5-5-5-5|
B|-0-0-0-0-0-0-0-0-5-5-5-0--0--0--0--0--0--0--0--0--0--0--0--0--5-5-5-5-5-5-5-5|
G|-----------------5-5-5-0--0--0--0--0--0--0--0--0--0--0--0--0--2-2-2-2-2-2-2-2|     x2
D|-----------------------------------------------------------------------------|
A|-----------------------------------------------------------------------------|
E|-----------------------------------------------------------------------------|



Ending:



e|-0--0----0---------------0---------------0---------------|
B|-0--03-3---3-3-3---3-3-3---3-3-3---3-3-3---3-3-3---00----|
G|-0--0-0-0-0-0-0-050-0-0-0-0-0-0-050---0-0-0---0-050-0----|
D|----------------------------------------------------0----|
A|--------------------------------------------3-------2----|
E|0--0--------------------------------0---------------3----|

            
            
Suggest correction
Creating personal tab
Creating personal tab
You can edit any tab online and save it as your Personal.

You can edit, replace or remove any tab part or add personal notes – all changes will be seen only by you.

Personal tabs can be accessed anytime from any device, even offline.
Learn more »
Give kudos to tab author, rate the tab!
1 2 3 4 5
comments
print report bad tab
guest
You may want to rate the tab now too:
select rating
Wanna post a correction for this tab? Suggest correction