Oops, an error
Loading. Please wait.

Push Bass

version 1
version 1

Whole song

Interactive

15,304 views 21 this week
3 commentsread comments
1 2 3 4 5
x 5
add to favorites
launch autoscroll
font size
0
reset
guitar tuner
×
Best way to learn
"Push"
Autoscroll
slow
fast
+/-
esc
set tempo
stop
BASSLINE FOR PUSH
                           As recorded by Matchbox 20
            (From the 1996 LP recording YOUSELF OR SOMEONE LIKE YOU)

Words & Music by Rob Thomas & Matt Serletic
gemini67@globalfreeway.com.au

            [Verse]
G|---------||--------------|----------------|-------------|-----------------||
D|---------||o-------------|----------------|-------------|----------------o||
A|---------||o-------------|------------3-5-|-----5-----5-|---------3-2-3--o||
E|-----15\-||--3---3-2---2-|-0----(0)-3-----|-3-----2-----|-0---(0)---------||

G|---------------------|-------------------|---------------------|
D|---------------------|-------------------|---------------------|
A|-5-5-5-5-5-5-5-5-5-5-|-5-5-5-5-5-5-5-5---|-3-3-3-3-3-3-3-3-3-3-|
E|---------------------|-----------------3-|---------------------|

G|------------------|---------------------|-------------------|
D|------------------|---------------------|-------------------|
A|-3-3-3-3-3-3-3--3-|-5-5-5-5-5-5-5-5-5-5-|-5-5-5-5-5-5-5-5---|
E|------------------|---------------------|-----------------3-|

G|------------------|-----------------|
D|------------------|-----------------|
A|-3-3-3-3-3-3-3--3-|-(3)----3-5-3-5--|
E|------------------|-----------------|

[Chorus]
G|-----------------|-----------------|-----------------|------------------|
D|-5-5-------------|-------------2---|-5-5-------------|------------------|
A|---------5-5---5-|-3-3---3-5-5---5-|---------5-5---5-|-3-3---3-5-5-3-5--|
E|-----3-5-----5---|-----5-----------|-----3-5-----5---|-----5------------|

                                                                       To Coda
G|-------------------|------------------|-------------------|-----------------|
D|-------------------|------------------|-------------------|-----------------|
A|-7-7--x-x-5-5--x-x-|-3-3--x-x-5-5-3-5-|-7-7--x-x-5-5--5-5-|-3-3-3-3-5-3-----|
E|-------------------|------------------|-------------------|-------------5-3-|

[Solo]
                                                      D.S. al Coda
G|-------------|----------------|-------------|-------------------|
D|-------------|----------------|-------------|-------------------|
A|-------------|------------3-5-|-----5-----5-|------------3-2-3--|
E|-3---3-2---2-|-0----(0)-3-----|-3-----2-----|-0------(0)--------|

   &
G|-----------------|-----------------|-----------------|--------------|
D|-----------------|-----------------|-----------------|--------------|
A|-----------------|-3-3-3-3---------|---------------3-|--------------|
E|-0-0-0-0-2-2-2-2-|---------5-5-3-2-|-0-0-0-0-2-2-2---|----5--5-3-2--|
 Oh dont bowl me over

G|-----------------|-----------------|-----------------|------------------|
D|-----------------|-----------------|-----------------|---------0-0---0--|
A|-----------------|-3-3-3-3-0-0-----|-----------------|-3-3-3-3-----3----|
E|-0-0-0-0-2-2-2-2-|-------------3-2-|-0-0-0-0-2-2-2-2-|------------------|


[Chorus]
G||------------------|------------------||
D||o-5-5-------------|-----------------o||
A||o---------5-5---5-|-3-3---3-5-5-3-5-o||
E||------3-5-----5---|-----5------------||

G|-------------------|------------------||-------------------|-----------------|
D|-------------------|------------------||-------------------|-----------------|
A|-7-7--x-x-5-5--x-x-|-3-3--x-x-5-5-3-5-||-7-7--x-x-5-5--5-5-|-3-3-3-3-5-3-----|
E|-------------------|------------------||-------------------|-------------5-3-|

G||----------------------|-------------------------||
D||o---------------------|------------------------o||
A||o---------------------|-----------3-3-3-3-3----o||
E||--3-3-3-3-3-2-2-2-2-2-|-0-0-0-0-0-----------5---||

G||------------------|------------------------||----*|
D||o-----------------|-----------------------o||----*|
A||o-----5-------5---|-----------3-3-3-3-3---o||----*|
E||--3-3---3-2-2---2-|-0-0-0-0-0-----------5--||-3--*|
Suggest correction
comments
print report bad tab
3 comments total.
0 reply
Ice Cold J 30 Mar 28, 2007 08:43 AM

Is this in standard tuning? It doesn't sound right.
I also heard that they use a 5-string bass... maybe that's why it sounds off.

0 reply
eow 41 Dec 04, 2007 03:44 PM

Tune down 1/2 step.
Other than that it's right on!

5 Stars

0 reply
barbar122 10 Feb 12, 2010 02:55 PM

its close but not right

guest
You may want to rate the tab now too:
select rating
Wanna post a correction for this tab? Suggest correction